Ads

Normal Battle ~ Large Map (Shin Megami Tensei III: Nocturne) Guitar Tab

Submitted: Feb 28, 2012 by Hitoshura89

0
Download | Listen
Game: Shin Megami Tensei III: Nocturne
Composer(s): Shoji Meguro
Style: Alternate picking, Pinch harmonics, Transcription
Series: Megami Tensei

AutoScroll: Slow | Medium | Fast
Normal Battle (Large Map)
Game: Shin Megami Tensei III: Nocturne
Composer: Shoji Meguro
Tabbed by: Hitoshura89
Tuning: E Standard

/=Slide Down
\=Slide Up
*=Palm Muting
PH=Pinch Harmonics
B=Bend
R=Release
~=Vibrato


Intro

E|----------------------------------------------|
B|----------------------------------------------|
G|----------------------------------------------| X4
D|--7\5--5-----7\5--5--------3H5--7\5--5-----2--|
A|--5\3--3--0--5\3--3--0-3-5------5\3--3--0--0--|
E|----------------------------------------------|
            *                             *

Verse

E|--15~-15~--17B-----------------------------------|
B|-------------------5-----------------------------|
G|-----------------7---5-7-------5--------7B-5-7~--|
D|-------------------------7-5H7----7-5H7----------|
A|-------------------------------------------------|
E|-------------------------------------------------|

                      PH
E|--15~--17B--------------------------------|
B|--------------5---------------------------|
G|------------7---5---7--7-5-7-5---------5--|
D|------------------7------------7-------5--|
A|---------------------------------0-5-7----|
E|------------------------------------------|


Verse 2

E|--15~-15~--17B-----------------------------------|
B|-------------------5-----------------------------|
G|-----------------7---5-7-------5--------7B-5-7~--|
D|-------------------------7-5H7----7-5H7----------|
A|-------------------------------------------------|
E|-------------------------------------------------|

                  PH
E|--15~-15~-17B-------------------------------------------|
B|----------------5---------------------------------------|
G|--------------7---5---------5--------5----5----5--------|
D|--------------------7-0-5-7----------5----5----5--------|
A|------------------------------0-5-7----7----7-------7\--|
E|----------------------------------------------------5\--|


Solo

E|-------------------------------------------------------|
B|------------------------------------------5------------|
G|--------------------------5---7B9R--7-5-7---5--5-------|
D|--------5---5H7-7~--7-5H7---7--------------------7--7--|
A|--0-5-7---7--------------------------------------------|
E|-------------------------------------------------------|


E|----------------------8-10-8-10-10/12-8--8-----------------------------------|
B|-------8---8-8-/10-10-----------------------10-8-10--10----------------------|
G|--7/9----9-----------------------------------------------7-7B9R-5-7--5--5----|
D|--------------------------------------------------------------------------7--|
A|-----------------------------------------------------------------------------|
E|-----------------------------------------------------------------------------|



E|-----------------------------------|
B|-----------------------------------|
G|-------5-----5-----5------5-----5--|
D|-------5-----5-----5------5-----5--|
A|--7-7-----7-----7------7-----7-----|
E|-----------------------------------|
    * *     *     *      *     * 

E|-----------------8-10-10/12~--|
B|-----5--8--9--10--------------|
G|--5---------------------------|
D|------------------------------|
A|------------------------------|
E|------------------------------|

End

E|--------------------------------------------------|
B|--------------------------------------------------|
G|--------------------------------------------------|
D|--------5-----------5--3--------5--7---5----------|
A|--0-0-0-3-5---0-0-0-3--1--0-0-0-3--5---3--5--3-5--|
E|----------3-------------------------------3--1-3--|
    * * *       * * *       * * *

Login or Register to remove this ad.