Ads

Normal Battle (Shin Megami Tensei III: Nocturne) Guitar Tab

Submitted: Feb 25, 2012 by Hitoshura89 (Last updated: Feb 25, 2012)

5
Average: 5 (1 vote)
Download | Listen
Game: Shin Megami Tensei III: Nocturne
Composer(s): Shoji Meguro
Style: Alternate picking, Pinch harmonics, Transcription
Series: Megami Tensei

AutoScroll: Slow | Medium | Fast
Normal Battle
Game: Shin Megami Tensei III: Nocturne (PS2)
Composer: Shoji Meguro
Tabbed by: Hitoshura89
Tuning: E Standard

*=Palm Muting
PH=Pinch Harmonics
B=Bend
~=Vibrato

Intro/ Main Verse
                        PH
E|------------------------------------------------------------------------|
B|----------------------6---------------------------------------6B--------|
G|---------7---------7------7--4~--------7---------7---------7-----7--4~--| X2
D|---------7---------7-------------------7---------7---------7------------|
A|--------------------------------0-2\5-----------------------------------|
E|--7-7-7-----7-7-7-------------------------7-7-7-----7-7-7---------------|
    * * *     * * *                         * * *     * * *

Then Play this the third time only once.And repeat the Intro/Main Verse and play Verse 2 once again.

Verse 2
                        PH
E|------------------------------------------------------------------------|
B|----------------------6---------------------------------------6B--------|
G|---------7---------7------7--4~--------7---------7---------7-----7------| X1
D|---------7---------7-------------------7---------7---------7-------4----|
A|--------------------------------0-2\5------------------------------2----|
E|--7-7-7-----7-7-7-------------------------7-7-7-----7-7-7---------------|
    * * *     * * *                         * * *     * * *  

Bridge


E|-------------|
B|-------------|
G|-------------| X8
D|-------------|
A|-------------|
E|--7-7-7-7-7--|
    * * * * *



Solo



E|---------------------------------------------------------------------------------------------------------------|
B|--------------------------------------------------------------------------------------------------15-14-12~~\--|
G|--/11~-11-13-14-16--16-14-13H14---------11-13-14~--14P13P11--------9-11-12--11-12-14-16--15-16-18--------------|
D|--------------------------------14~--14---------------------12--12---------------------------------------------|
A|---------------------------------------------------------------------------------------------------------------|
E|---------------------------------------------------------------------------------------------------------------|
Login or Register to remove this ad.

1 comment on Normal Battle

Woo, more SMT tabs! I'd

Woo, more SMT tabs! I'd probably be your bitch if you did one for Normal Battle(Large Map) :3