Watercrown (Shin Megami Tensei: Digital Devil Saga) Guitar Tab

Submitted: Nov 18, 2012 by Aleph

0
Download | Listen
Game: Shin Megami Tensei: Digital Devil Saga
Composer(s): Shoji Meguro
Style: Transcription
Series: Megami Tensei

AutoScroll: Slow | Medium | Fast
Watercrown
Digital Devil Saga
Tabbed by Aleph for guitar
11/17/2012


E|-------------------------------------------------------------------------------------------------|
B|------12--14--15--14-----------------------------------------------------------------------------|
G|--11------------------14~-----11--9--11-----------------------9--11~---------------6--7--9~------|
D|-----------------------------------------9--12~----9--11--12------------7----7--9----------------|
A|-------------------------------------------------------------------------------------------------|
E|-------------------------------------------------------------------------------------------------|

E|-------------------------------------------------------------------------------------------------|
B|------12--14--15--14-----------------------------------------------------------------------------|
G|--11------------------14~-----11--9--11---------------9--11---------------------9--11--12--11~---|
D|-----------------------------------------9--12~---12---------9--12~---12----12-------------------|
A|-------------------------------------------------------------------------------------------------|
E|-------------------------------------------------------------------------------------------------|

E|-------------------------------------------------------------------------------------------------|
B|------------------7-------------------7------------------7------------------7------------------7-|
G|--(7)-9--7--6--7-------7--9--7--6--7------7--9--7--6--7------7--9--7--6--7------7--9--7--6--7----|x3
D|-------------------------------------------------------------------------------------------------|
A|-------------------------------------------------------------------------------------------------|
E|-------------------------------------------------------------------------------------------------|

E|-------------------------------------------------------------------------------------------------|
B|--------7--8--7~---------------------------------------------------------------------------------|
G|--7--9-------------------------------------------------------------------------------------------|
D|-------------------9---9---9---9---9---9---9---9-------------------------------------------------|
A|-------------------9---9---9---9---9---9---9---9-------------------------------------------------|
E|-------------------7---7---7---7---7---7---7---7-------------------------------------------------|
                     *   *   *   *   *   *   *   *

Play the chord until the song ends, gradually strumming harder and stopping the palm muting.


/ - slide
~ - vibrato
h - hammer-on
()- play only on repeats
* - palm mute

Login or Register to remove this ad.