Ads

Muladhara (Shin Megami Tensei: Digital Devil Saga) Guitar Tab

Submitted: May 26, 2013 by Aleph

5
Average: 5 (3 votes)
Download | Listen
Game: Shin Megami Tensei: Digital Devil Saga
Composer(s): Shoji Meguro
Style: Transcription
Series: Megami Tensei

AutoScroll: Slow | Medium | Fast
Muladhara
Digital Devil Saga
Tabbed by Aleph for guitar
5/25/2013

E|------------------------------------------------------------------------------------------------|
B|------------------------------------------------------------------------------------------------|
G|--10p9--------------------------------------------------10p9------------------------------------|
D|-------10----10--12B13--12--10\8--8---8--8--8/10-----10------10----12b13--12--10\8---8---8-8--5-|
A|----------10----------------10\8--8---8--8--8/10--10------------10------------10\8---8---8-8--5-|
E|------------------------------------------------------------------------------------------------|

E|------------------------------------------------------------------------------------------------|
B|------------------------------------------------------------------------------------------------|
G|--10p9------------------------------------------------10p9--------------------------------------|
D|-------10----12B13--12--10\8--8---8-8--8/10-----10---------10----12b13--12--10\8---8---8-8--5---|
A|----------10------------10\8--8---8-8--8/10--10----10---------10------------10\8---8---8-8--5---|
E|------------------------------------------------------------------------------------------------|

E|------------------------------------------------------------------------------------------------|
B|------------------------------------------------------------------------------------------------|
G|-----------------------------------13h15--15-13-12------------12--------------------------------|
D|--13h15-15-15-15~--13h15p13--12-13-----------------15---13-15----13~--13p12h13p12-----------10--|
A|-----------------------------------------------------------------------------------13-10-13-----|
E|------------------------------------------------------------------------------------------------|

E|----------------------------------------------11----11-13b14-13b14r-11-11~----------------------|
B|----------------------------11----11/13-13\------13---------------------------------------------|
G|-----------------8-10-10/12----12---------------------------------------------------------------|
D|-------8h10p8h10--------------------------------------------------------------------------------|
A|--8h10------------------------------------------------------------------------------------------|
E|------------------------------------------------------------------------------------------------|

E|--10h11p10--------------------------------------------------------------------------------------|
B|-----------11----11--13---------------------------------9/11--11--------------13--11------------|
G|--------------12----------10--10b11r------------------------------13--12--13---------13-12-10---|
D|--------------------------------------13--13--12-13-13------------------------------------------|
A|------------------------------------------------------------------------------------------------|
E|------------------------------------------------------------------------------------------------|

E|------------------------------------------------------------------------------------------------|
B|------------------------------------------------------------------------------------------------|
G|------------------------------------------------------------------------------------------------|
D|--13-12-13/15-15--13--------------10--10\-------13--13\---13--15--15p13----13-15-15/17----------|
A|------------------------13----13------------15--------------------------15----------------------|
E|------------------------------------------------------------------------------------------------|

E|------------------------------------------------------------------------------------------------|
B|-------------16--18p16--16--18--18/20--20~------------------------------------------------------|
G|--15--15/17-------------------------------------------------------------------------------------|
D|------------------------------------------------------------------------------------------------|
A|------------------------------------------------------------------------------------------------|
E|------------------------------------------------------------------------------------------------|



Login or Register to remove this ad.

1 comment on Muladhara

Fantastic!

5

This song is great, one of those tunes that I could just sit and listen to for a very long time. The tab is perfect, spent all night learning to play the solo along with the song and you definitely nailed it. Thank you for contributing!