Ads

Hunting Compulsion (Shin Megami Tensei: Digital Devil Saga) Guitar Tab

Submitted: Sep 07, 2012 by Zetsword

5
Average: 5 (3 votes)
Download | Listen
Game: Shin Megami Tensei: Digital Devil Saga
Composer(s): Shoji Meguro
Style: Transcription
Series: Megami Tensei

AutoScroll: Slow | Medium | Fast
Hunting - Compulsion
Game: Shin Megami Tensei: Digital Devil Saga
Composer: Shoji Meguro
Tabbed By: Zetsword
Tuning: E Standard
Date: 09/06/12

Intro Riff Repeat x2
e|----------------------------------------------------------------|
B|----------------------------------------------------------------|
G|-7--7-x--------5--5-x--------3--3-x-----------------------------|
D|-7--7-x-7--7-x-5--5-x-5--5-x-3--3-x-3--3/6-6-6-6-x--6-6-6-x-6-8-|
A|-5--5-x-5--5-x-3--3-x-5--5-x-1--1-x-3--3/6-6-6-6-x--6-6-6-x-6-6-|
E|--------5--5-x--------3--3-x--------1--1/4-4-4-4-x--4-4-4-x-4-6-|

e|------------------------------------------------------------------------------------|
B|-4p3--------------------------------------4p3---------------------------------4p3---|
G|-----3-x-3h5-5-x-----3h5-5-x------3-x-3h5-----3-x-3h5-5-x-----3h5-5-x-----3h5-----3-|
D|-----------------3h5---------3h5--------------------------3h5---------3h5-----------|
A|------------------------------------------------------------------------------------|
E|------------------------------------------------------------------------------------|

e|------------------------------------------------------------------------------------|
B|-4p3--------------------------------------4p3---------------------4-6-6b8-6-4-6/8---|
G|-----3-x-3h5-5-x-----3h5-5-x------3-x-3h5-----3-x-3h5-5-x-----3h5-------------------|
D|-----------------3h5---------3h5--------------------------3h5-----------------------|
A|------------------------------------------------------------------------------------|
E|------------------------------------------------------------------------------------|

e|---------------5p4---5p4---3-5---------------------------------------------|
B|-3s6-3---3h5h6-----6-----6-----6-3-----------------------------------------|
G|-------5-------------------------------------------------------------------|
D|-----------------------------------7-5---5---5-7---------------------------|
A|---------------------------------------8---8-----8-5-----------------------|
E|---------------------------------------------------------------------------|

e|---------------5p4---5p4---3-5---------------------------------------------|
B|-3s6-3---3h5h6-----6-----6-----6-3-----------------------------------------|
G|-------5-------------------------------------------------------------------|
D|-----------------------------------7-5---5---5-7---5-----------------------|
A|---------------------------------------8---8-----8---5~--------------------|
E|---------------------------------------------------------------------------|

e|-8b10-10-10-10r8-8~--------------------------------------------------------|
B|--------------------8--------------------8---------------------------------|
G|----------------------10-8-10-10b12-8-10---8h10p8----8---------------------|
D|--------------------------------------------------10-----------8-10--8-10--|
A|-------------------------------------------------------8h10-10-------------|
E|---------------------------------------------------------------------------|

e|-------------------6----------11----11----11----11-13b15-13b15-------------|
B|--------/8-----------8-8-8s13-----13----13----13---------------------------|
G|--8-10--------8-10---------------------------------------------------------|
D|-----------10--------------------------------------------------------------|
A|---------------------------------------------------------------------------|
E|---------------------------------------------------------------------------|

e|-13b15r13p11h13-15-11-11-10-10-----------------------------------------13--|
B|-------------------------------13-13-11-11---------------8-11-11s13-16-----|
G|--------------------------------------------8-10b12r10p8-------------------|
D|---------------------------------------------------------------------------|
A|---------------------------------------------------------------------------|
E|---------------------------------------------------------------------------|

e|-13s15\-/18-18-18-18-18s20-------------------------------------------------|
B|---------------------------------------------------------------------------|
G|---------------------------------------------------------------------------|
D|---------------------------------------------------------------------------|
A|---------------------------------------------------------------------------|
E|---------------------------------------------------------------------------|
Login or Register to remove this ad.

1 comment on Hunting Compulsion

:D

:D