Ads

Big Battle (Shin Megami Tensei: Digital Devil Saga) Guitar Tab

Submitted: Feb 11, 2012 by Hitoshura89

5
Average: 5 (1 vote)
Download | Listen
Game: Shin Megami Tensei: Digital Devil Saga
Composer(s): Shoji Meguro
Style: Transcription
Series: Megami Tensei

AutoScroll: Slow | Medium | Fast
Big Battle
Game: Shin Megami Tensei: Digital Devil Saga (PS2)
composer: Shoji Meguro
Tabbed By: Hitoshura89
Tuning: E Standard
12-27-11

Intro

  Let Ring
E|---------------------------9h12-9--------------------------------------------------------------------------12-9--------------------|
B|------------12B14-----12~----------10~~-----------------------10-12B14-12B14-12B14-12B14-12B14-12B14--12~-------10~-9H10-10/12-12\-|
G|---------------------------------------9H11-99-7-9-9/11~~-11-----------------------------------------------------------------------|
D|---4-------------------------------------------------------------------------------------------------------------------------------|
A|---2-------------------------------------------------------------------------------------------------------------------------------|
E|-----------------------------------------------------------------------------------------------------------------------------------|


E|------------------9h12-9--------------------------------------------------------------------------12-9--------------------|
B|---12B14-----12~----------10~~-----------------------10-12B14-12B14-12B14-12B14-12B14-12B14--12~-------10~-9H10-10/12-12\-|
G|------------------------------9H11-99-7-9-9/11~~-11-----------------------------------------------------------------------|
D|--------------------------------------------------------------------------------------------------------------------------|
A|--------------------------------------------------------------------------------------------------------------------------|
E|--------------------------------------------------------------------------------------------------------------------------|


Break

E|---4----4-------2----2-------4----4-------2----2-------2-----2-----2-1-----1-------2-----2-------1----1-------|
B|---3--3---------3--3---------3--3---------3--3---------0---3---------0---3-------3-0---3-------3-0--3-------3-|
G|-----------4--4---------4--4---------4--4---------4--4---4------4------4------4------4------4------------4----|
D|--------------------------------------------------------------------------------------------------------------|
A|--------------------------------------------------------------------------------------------------------------|
E|--------------------------------------------------------------------------------------------------------------|

E|---4----4-------2----2-------4----4-------2----2-------2----2-----2----2------------|
B|---3--3---------3--3---------3--3---------3--3---------3--3----------3--------------|
G|-----------4--4---------4--4---------4--4---------4--4---------4----------4---------|
D|-------------------------------------------------------------------------------4-X14|
A|-------------------------------------------------------------------------------2----|
E|------------------------------------------------------------------------------------|


Ending

E|--12B--10-9-10-9H10P9------7-10--12B14-12B14-12B14-12B14-12B14-12-10-10~~----10-9-10-9H10P9------|
B|-----------------------10~-------------------------------------------------------------------10~-|
G|-------------------------------------------------------------------------------------------------|
D|-------------------------------------------------------------------------------------------------|
A|-------------------------------------------------------------------------------------------------|
E|-------------------------------------------------------------------------------------------------|


E|--12B--10-9-10-9H10P9-------7-10--12B14-12B14-12B14-12B14-12B14-14/17--------------------------|
B|-----------------------10~--------------------------------------------15--15-17-15H17P15-14~-\-|
G|-----------------------------------------------------------------------------------------------|
D|-----------------------------------------------------------------------------------------------|
A|-----------------------------------------------------------------------------------------------|
E|-----------------------------------------------------------------------------------------------|
Login or Register to remove this ad.