Madness (Shin Megami Tensei: Digital Devil Saga 2) Guitar Tab

Submitted: Jun 02, 2013 by Aleph

5
Average: 5 (1 vote)
Download | Listen
Game: Shin Megami Tensei: Digital Devil Saga 2
Composer(s): Shoji Meguro
Style: Transcription
Series: Megami Tensei

AutoScroll: Slow | Medium | Fast
Madness
Digital Devil Saga 2
tabbed by Aleph for guitar
5/30/2013

E|--------------------------------------|
B|--------------------------------------|
G|--------------------------------------|x4
D|--4-4-4-4-4--4-5-5--4-4-4-4-4--4-2-2--|
A|--4-4-4-4-4--4-5-5--4-4-4-4-4--4-2-2--|
E|--2-2-2-2-2--2-3-3--2-2-2-2-2--2-0-0--|

E|--------------------------------------------------------------------------------------------------------------|
B|--12--9--9--10--9h10p9--------------8b9-8b9-8b9------------12--9--9--10--9h10p9-------------------------------|
G|------------------------11---9-11-9-------------11-9~---9------------------------11---9-11-9------------------|
D|---------------------------------------------------------------------------------------------10-10-10-9-------|
A|--------------------------------------------------------------------------------------------------------12~---|
E|--------------------------------------------------------------------------------------------------------------|

E|--------------------------------------------------------------------------------------------------------------|
B|--12--9--9--10--9h10p9-------10-9---8b9-8b9-8b9------------12--9--9--10--9h10p9-------------------------------|
G|------------------------11--------9-------------11-9~---9------------------------11--9-11-9-11b13-11-9-11-11~-|
D|--------------------------------------------------------------------------------------------------------------|
A|--------------------------------------------------------------------------------------------------------------|
E|--------------------------------------------------------------------------------------------------------------|

E|--------------------------------------------------------------------------------------------------------------|
B|--13------------13--15--13------------13------------------15--13---17-----------------------------------------|
G|------16--------------------16--12--------16------------------------------------------------------------------|
D|----------15----------------------------------15--14--15------------------------------------------------------|
A|--------------------------------------------------------------------------------------------------------------|
E|--------------------------------------------------------------------------------------------------------------|

E|--9-----------------------9-----------------9--------------------9--10--12------------------------------------|
B|---------10~---9--10--12---------12--10~-----------10~---10--12-------------9--12--10~------------------------|
G|-----11----------------------11----------------11-----------------------------------------7--------6----------|x2
D|------------------------------------------------------------------------------------------7--------7----------|
A|------------------------------------------------------------------------------------------5--------5----------|
E|--------------------------------------------------------------------------------------------------------------|
Login or Register to remove this ad.