Ads

Reset (Instrumental) (Shin Megami Tensei: Devil Survivor) Guitar Tab

Submitted: Oct 16, 2010 by hslesperance

5
Average: 5 (1 vote)
Download | Listen
Game: Shin Megami Tensei: Devil Survivor
Composer(s): Takami Asano, Kenichi Tsuchiya, Atsushi Kitajoh
Style: Transcription
Series: Megami Tensei

AutoScroll: Slow | Medium | Fast
Reset (Instrumental)
Shin Megami Tensei: Devil Survivor
Composed by Takami Asano
Tabbed by hslesperance
10/16/10

Standard Tuning


Big thanks to Kiku for his help on this tab.


e------------------------------------------------------------
B----------------------------------10--12--10--------10-12---
G---9------11-12-11----------12--------------------9---------
D------------------------12----------------------------------
A------------------------------------------------------------
E------------------------------------------------------------

e---------------------------------------------11----12-------
B---13----10----12----------10----13----12-------------------
G---------------------12-------------------------------------
D------------------------------------------------------------
A------------------------------------------------------------
E------------------------------------------------------------

e---10-12-10-------------------------------------------------
B-------------------10b12----10--8--10--------10-12-13-------
G-------------------------------------------9----------------
D------------------------------------------------------------
A------------------------------------------------------------
E------------------------------------------------------------

e-------------------------------------11----12---------------
B---10--12----------10----13----12---------------------------
G-------------12---------------------------------------------
D------------------------------------------------------------
A------------------------------------------------------------
E------------------------------------------------------------

e------------------------------------8--7---------7----------
B-------------------------------8-10-------10--8-----10------
G--------7-8-7----------------9------------------------------
D---7-10-------10----7---------------------------------------
A-----------------10-----------------------------------------
E------------------------------------------------------------

e------------------------------------8--7---------7----------
B-------------------------------8-10-------10--8-----10------
G--------7-8-7----------------9------------------------------
D---7-10-------10----7---------------------------------------
A-----------------10-----------------------------------------
E------------------------------------------------------------

e-------------------------------------8--7---------7---------
B--------------------------------8-10-------10--8-----10-----
G--------7-8-7-------7--------10-----------------------------
D---7-10-------10-7------------------------------------------
A------------------------------------------------------------
E------------------------------------------------------------

e------------------------------------8--7---------7----------
B--------8-9-8------------------8-10-------10--8-----10------
G---7-10-------10-------------9------------------------------
D-----------------10-7---------------------------------------
A------------------------------------------------------------
E------------------------------------------------------------

e------------------------------------8--7---------7----------
B-------------------------------8-10-------10--8-----10------
G--------7-8-7----------------9------------------------------
D---7-10-------10----7---------------------------------------
A-----------------10-----------------------------------------
E------------------------------------------------------------

e------------------------------------8--7---------7----------
B-------------------------------8-10-------10--8-----10------
G--------7-8-7----------------9------------------------------
D---7-10-------10----7---------------------------------------
A-----------------10-----------------------------------------
E------------------------------------------------------------

e-------------------------------------8--7---------7---------
B--------------------------------8-10-------10--8-----10-----
G--------7-8-7-------7--------10-----------------------------
D---7-10-------10-7------------------------------------------
A------------------------------------------------------------
E------------------------------------------------------------

e------------------------------------8--7---------7----------
B--------8-9-8------------------8-10-------10--8-----10------
G---7-10-------10-------------9------------------------------
D-----------------10-7---------------------------------------
A------------------------------------------------------------
E------------------------------------------------------------

e------------------------------------------------------------
B------------------------------------------------------------
G--------7-8-7-------------------4---------------------------
D---7-10-------10-----2--5--4----4---------------------------
A-----------------10--2--5--4----2---------------------------
E---------------------0--3--2--------------------------------

e------------------------------------------------------------
B----------------------------------10--12--10--------10-12---
G---9------11-12-11----------12--------------------9---------
D------------------------12----------------------------------
A------------------------------------------------------------
E------------------------------------------------------------

e---------------------------------------------11----12-------
B---13----10----12----------10----13----12-------------------
G---------------------12-------------------------------------
D------------------------------------------------------------
A------------------------------------------------------------
E------------------------------------------------------------

e---10-12-10-------------------------------------------------
B-------------------10b12----10--8--10--------10-12-13-------
G-------------------------------------------9----------------
D------------------------------------------------------------
A------------------------------------------------------------
E------------------------------------------------------------

e-------------------------------------11----12---------------
B---10--12----------10----13----12---------------------------
G-------------12---------------------------------------------
D------------------------------------------------------------
A------------------------------------------------------------
E------------------------------------------------------------

e------------------------------------------------------------
B------------------------------------------------------------
G---9-10-12--9-10-9h10p9--9----------------------------------
D------------------------------12--9h10p9-12----12--10-9-----
A--------------------------------------------------------12--
E------------------------------------------------------------

e------------------------------------------------------------
B------------------------------------------------------------
G---------------------9--10-12-10-9----9------9--10--12--9---
D---9-9-------9-10-12---------------12----10-----------------
A-------10-12------------------------------------------------
E------------------------------------------------------------

e------------------------------------------------------------
B---12b13----12-10-12~----10-12-10----10-----------10-12-13--
G----------------------------------12--------10-12-----------
D-----------------------------------------12-----------------
A------------------------------------------------------------
E------------------------------------------------------------
                                Play this 16 while still bending up to 17 and then release
e---10-12-13-14b16----16b17~----16r--------------------------
B-----------------------------------16--13-15-15--12-13-13---
G------------------------------------------------------------
D------------------------------------------------------------
A------------------------------------------------------------
E------------------------------------------------------------

e------------------------------------------------------------
B---10-12-12--8-10-10--8-------------------------------------
G-------------------------9-7--5--7--8--7--5--7----4h5p4-----
D---------------------------------------------------------7--
A------------------------------------------------------------
E------------------------------------------------------------

e------------------------------------------------------------
B------------------------------------------------4b5---------
G---4--------4-----5--4-----4--------5--7--5--7------7---5---
D-------5-7-----7--------7-----5--7------------------------7-
A------------------------------------------------------------
E------------------------------------------------------------

e------------------------------------------------------------
B------------------5--6--5-----5--------6-----8-----6--8-----
G---------5--6--7-----------7-----5--7-----7-----7-----------
D---6--7-----------------------------------------------------
A------------------------------------------------------------
E------------------------------------------------------------

e------------10----------------------------------------------
B---8b10~--------8b10--8--6-----8--6-----6--7--9/10--13------
G----------------------------7--------7----------------------
D------------------------------------------------------------
A------------------------------------------------------------
E------------------------------------------------------------

e--------------------17--------------------------------------
B---15--13--15b17--------15b17--13--15----13h15p13-----13----
G---------------------------------------------------14-------
D------------------------------------------------------------
A------------------------------------------------------------
E------------------------------------------------------------

e---16b17~--------7b8--7--5----------------------------------
B----------------------------8b10--8--5----------------------
G----------------------------------------7b9--7--5-----5--4--
D---------------------------------------------------5--------
A------------------------------------------------------------
E------------------------------------------------------------

e------------------------------------------------------------
B------------------------------------------------------------
G------4------------------------------------------5----------
D---7-----5--7----5-------------------5-----7----------7--5--
A--------------------7--5-----5--6/7-----7-----7-------------
E--------------------------8---------------------------------

e--------------------------------------------7--8--7h8p7-----
B--------------------4--5--8--5--8--10~-------------------10-
G-----------4--5--7------------------------------------------
D---7----7---------------------------------------------------
A------------------------------------------------------------
E------------------------------------------------------------

e---7---------8------8--10b12----8-7-----------------10------
B------8--10-----10------------------10--------8/10------10--
G------------------------------------------------------------
D------------------------------------------------------------
A------------------------------------------------------------
E------------------------------------------------------------

e---12------13------15------13------12------10----10b11r-----
B-------10------10------10------10------10----------------13-
G------------------------------------------------------------
D------------------------------------------------------------
A------------------------------------------------------------
E------------------------------------------------------------

e---10--10b12r-----10----10----------------------------------
B---------------13-----------12-13-12-10-12-----10-----------
G--------------------------------------------12-----------9--
D-----------------------------------------------------12-----
A------------------------------------------------------------
E------------------------------------------------------------

e------------------------------10b12r------16b17~------------
B-----------9--10--13--10--13----------13------------15pb16r-
G---10--12---------------------------------------------------
D------------------------------------------------------------
A------------------------------------------------------------
E------------------------------------------------------------

e--------------------------------16b17-----------------------
B---13--13h15--13----------13--------------------------------
G------------------14---14-----------------------------------
D------------------------------------------------------------
A------------------------------------------------------------
E------------------------------------------------------------

Then it just repeats the part before the solo and ends on
e------------------------------------------------------------
B------------------------------------------------------------
G--------7-8-7-----------------------------------------------
D---7-10-------10----7---------------------------------------
A-----------------10-----------------------------------------
E------------------------------------------------------------

h - hammer on
p - pull off
/ - slide up
b - bend
r - release
pb- prebend
~ - vibrato
Login or Register to remove this ad.

3 comments on Reset (Instrumental)

Good work hslesperance, that

Good work hslesperance, that was fast. I trust my messy tab didn't confuse you too much? ;D

Good work, both of you ^^ and

Good work, both of you ^^ and the start it's exactly as I do it when I tried, lol, so, thank you two for complete this tab ^ยท^

Finally

5

omg
thank you so much
:D
if only there was more tabs for SMT Devil Survivor D:
good work(Y)