Soul Survive (Shin Megami Tensei: Devil Survivor Overclocked) Guitar Tab

Submitted: Mar 05, 2012 by Hitoshura89

0
Download | Listen
Game: Shin Megami Tensei: Devil Survivor Overclocked
Composer(s): Takami Asano, Kenichi Tsuchiya, Ryota Koduka, Atsushi Kitajoh
Style: Transcription
Series: Megami Tensei

This song is also called Opening Theme

AutoScroll: Slow | Medium | Fast
Soul Survive
Game:Devil Survivor Overclocked
Composer: Takami Asano
Tabbed by: Hitoshura89
Tuning: E Standard

*=Palm Muting

Intro/ Main Verse Repeat until 0:25


e-------------------------------------------------------|
B-------------------------------------------------------|
G----------------------2-----------------------------2--|
D--3---------3---5-3-5------3----3---------3---5-3-5----|
A-----5-5--5---5----------5---5-----5-5--5---5----------|
E-------------------------------------------------------|

From 0:25 to 0:37


Verse 2

E|----------------------------------------|
B|----------------------------------------|
G|----------------------------------------|  X2
D|----------------------------------------|
A|--5--5--5--5--5--5---3--3--3--3--3--3---|
E|--3--3--3--3--3--3---1--1--1--1--1--1---|
    *  *  *  *  *  *   *  *  *  *  *  *

E|------------------------------------|
B|------------------------------------|
G|------------------------------------|
D|------------------------------------|
A|--5--5--5--5--5--5---5--5--5--5--5--|
E|--3--3--3--3--3--3---3--3--3--3--3--|
    *  *  *  *  *  *   *  *  *

Verse 3 End

E|---------------------------|
B|---------------------------|
G|---------------------------| X4
D|---------------------------|
A|--5--5--5--3---3--3--3--5--|
E|--3--3--3--1---1--1--1--3--|


E|-------------------------------------|
B|-------------------------------------|
G|-------------------------------------|
D|-------------------------------------|
A|--3--3--3--3--3--3--3--3---5--5---5--|
E|--1--1--1--1--1--1--1--1---3--3---3--|
    *  *  *  *  *  *  
Login or Register to remove this ad.