Fiend Battle (Shin Megami Tensei: Devil Summoner 2: Raidou Kuzunoha vs. King Abaddon) Guitar Tab

Submitted: Feb 17, 2012 by Hitoshura89

0
Download | Listen
Game: Shin Megami Tensei: Devil Summoner 2: Raidou Kuzunoha vs. King Abaddon
Composer(s): Shoji Meguro
Style: Transcription
Series: Megami Tensei

AutoScroll: Slow | Medium | Fast
Fiend Battle
Game: Shin Megami Tensei: Devil Summoner 2 Raidou Kuzunoha Vs. King Abbadon (PS2)
Composer: Shoji Meguro
Tabbed by: Hitoshura89
Tuning: E Standard
12-22-11

Intro X2

E|--------------------------------------------------|
B|--------------------------------------------------|
G|--------------------------------------------------|
D|--55--7--5--55--7--5--44--5--4--44--5--4----------|
A|--33--5--3--33--5--3--22--3--2--22--3--2----------|
E|--------------------------------------------------|


Verse


E|------------------------------------------------------------7-8-8/10--8-7-8--7--------------------|
B|-10-8---7-8-7----------------------------------------7-8-10--------------------7-10---7-----------|
G|--------------7-9--7----7------------------------7-9--------------------------------9---7-9-------|
D|------9--------------10---99-10-9--99-10-9--9-10--------------------------------------------10~---|
A|--------------------------------------------------------------------------------------------------|
E|--------------------------------------------------------------------------------------------------|


Verse 2

E|------------------------------------------------------------7-8-8/10--8/14~-|
B|-10-8---7-8-7----------------------------------------7-8-10-----------------|
G|--------------7-9--7----7------------------------7-9------------------------|
D|------9--------------10---99-10-9--99-10-9--9-10----------------------------|
A|----------------------------------------------------------------------------|
E|----------------------------------------------------------------------------|


End

E|--10-9-9----10-9-9--------9/12-12-9-9----7/9------10-9-9-------9/12-12-9-9--------------10-9-9----9/12-9----9/14-14~~---|
B|---------12--------12--12-------------10-----12~---------12-12-------------10-10-10/12---------12--------10-------------|
G|------------------------------------------------------------------------------------------------------------------------|
D|------------------------------------------------------------------------------------------------------------------------|
A|------------------------------------------------------------------------------------------------------------------------|
E|------------------------------------------------------------------------------------------------------------------------|
Login or Register to remove this ad.