Ads

Fir Trees (Shiki) Guitar Tab

Submitted: Dec 01, 2014 by scarecrowlol

5
Average: 5 (5 votes)
Download | Listen
Game: Shiki
Composer(s): Yasuharu Takanashi
Style: Arrangement, Fingerstyle, Natural harmonics, Pinch harmonics, Tremolo

AutoScroll: Slow | Medium | Fast
Title: Fir Trees
SubTitle: Shiki
Artist: Takanashi Yasuharu
Tabber: Mitch Jackson
Tempo = 58
T/S = 3/4

      ^
      E  E  E  E  E  E       E  E  E  E  E  E       E  E  E  E  E  E       E  E  E  E  E  E
E ||-----------3-----0----|--------2-------------|-----------3-----0----|--------2------------||
B ||-----0--3-----2-------|-----0--------3--2----|-----0--3-----2-------|-----0--------3--2---||
G ||o---------------------|-----------0----------|----------------------|--0-----------------o||
D ||o-2-------------------|--2-------------------|--2-------------------|-----------4--------o||
A ||--2-------------------|----------------------|--2-------------------|---------------------||
E ||--0-------------------|--0-------------------|----------------------|--3--------2---------||

                                                       ^
     S S H           E       E  E  E  E  E  E       E  H           E       E  E  E  Q.
  |------3-----------L----|--------------7-------|--0--3-----------L----|----------------------|
  |------3-----------L----|--2--------0-----7----|-----3-----------L----|--2--3--2--0----------|
  |----0------------------|--------0-------------|-----0-----------L----|--------0-------------|
  |--2--------------------|-----2----------------|-----2-----------L----|-----2----------------|
  |-----------------------|----------------------|----------------------|----------------------|
  |--0--------------------|--0-------------------|--0-------------------|--0-------------------|

                                            =          |2:3|2:3|            
     S S S S S. S. Q     S      E  E  E  E  E  S S      S S S S S S E  E       E  E  E  E  S S E
  |--------3-2--5s-7-----L---|--------------7--5s7---|----2---3-----7-------|--0--------------------|
  |------3-------------------|--2--------0-----------|--3---0---3s5----7----|--2--------0-----------|
  |--2s4---------------------|-----0-----------------|----------------------|--------0--------------|
  |--------------------------|--------2--------------|----------------------|-----2-----------------|
  |--------------------------|-----------------------|----------------------|--------------0-2------|
  |--0-----------------------|--0--------------------|--0-------------------|--0---------------3----|

                                                           ^           g
     S S S S S. S. S E  E       E  E  E  Q     S S      E  H           T S S      E  E  E  E  E  E
  |--------3-2--10-9-9-------|-----------------7h5---|--7--3---------------2---|--0-----------7-------|
  |------3---0----------7----|--2--------0-----------|-----3-----------1s3-----|-----------0-----7----|
  |--2s4-------------7-------|--------0--------------|-----0-------------------|--------0-------------|
  |--------------------------|-----2-----------------|-----2-------------------|-----2----------------|
  |--------------------------|-----------------------|-------------------------|----------------------|
  |--0-----------------------|--0--------------------|--0----------------------|--0-------------------|

     ^                                    
     E  E  E  E  E  E       E  E  E  E  E  E       E  E  E  E  E  E       E  E  E  E  E  E
  |-----------3-----0----|--------2-------------|-----------3-----0----|--------2-------------|
  |-----0--3-----2-------|-----0--------3--2----|-----0--3-----2-------|-----0--------3--2----|
  |--0-------------------|-----------0----------|----------------------|--0-------------------|
  |--2-------------------|--2-------------------|--2-------------------|-----------4----------|
  |--2-------------------|----------------------|--2-------------------|----------------------|
  |--0-------------------|--0-------------------|----------------------|--3--------2----------|
                                            
                                            =          |2:3|2:3|                    P.H
     S S S S S. S. Q     S      E  E  E  E  E  S S      S S S S S S E  E       E  S S E  S S S S S S
  |--------3-2--5s-7-----L---|--------------7--5s7---|----2---3-----7-------|--0---<0>-----2---3-5-7---|
  |------3-------------------|--2--------0-----------|--3---0---3s5----7----|--2-----<0>-0---3---------|
  |--2s4---------------------|-----0-----------------|----------------------|--------------------------|
  |--------------------------|--------2--------------|----------------------|-----2--------------------|
  |--------------------------|-----------------------|----------------------|--------------------------|
  |--0-----------------------|--0--------------------|--0-------------------|--0-----------------------|

                                                                      ^           g
     S S S S S. S. S S. T E       E  E  S T T  Q.  T  T S S      T S. H           T S S      E  E  E  E  E  E
  |--------3-2--10-9-9--9------|----------9h10h12--10p9-5s7---|--5s7--3---------------2---|--0-----------7-------|
  |------3---0------------7----|--2---------------------------|-------3-----------1s3-----|-----------0-----7----|
  |--2s4-------------7---------|--------0---------------------|-------0-------------------|--------0-------------|
  |----------------------------|-----2------------------------|-------2-------------------|-----2----------------|
  |----------------------------|------------------------------|---------------------------|----------------------|
  |--0-------------------------|--0---------------------------|--0------------------------|--0-------------------|

     ^                                             ^                                                            
     E  E  E  Q     E       E  E  E  E  E  E       E  E  E  Q     S S      E  E  E  E  E  E
  |-----------0----------|-----------5--3--5----|--3--------2-----------|--0-----------0-------|
  |--1-------------------|--0-------------------|-----------0-----------|--0--------3-----0----|
  |--2--------------2----|----------------------|--0--------------------|----------------------|
  |--------3-------------|--------3-------------|--2-----2--------------|--------2-------------|
  |-----3----------------|-----3----------------|-----2-----------------|-----2----------------|  
  |--1-------------------|--1-------------------|--0--------------3s5---|--0-------------------|

                                                |----RALL-------------> 45BPM      FERM      
     E  E  E  Q     E       E  E  E  E  E  E       E  E  E  E  E  E       E  E  E  Q.
  |-----------0----------|-----------5--3--5----|--2--------0--3--2----|--0-------------------|
  |--1-------------------|--0-------------------|--------4-------------|-----4--1-------------|
  |-----------------2----|----------------------|----------------------|-----------4----------|
  |--2-----3-------------|--------3-------------|-----1----------------|----------------------|
  |-----3----------------|-----3----------------|--2-------------------|--2-------------------|
  |--1-------------------|--1-------------------|----------------------|----------------------|

  58BPM                            
     E  E  E  E  E  E       E  E  E  E  E  E       E  E  E  E  E  E       E  E  E  E  E  E
  |--0--------3-----0----|--------2-------------|-----------3-----2----|--0-----2-------------|
  |--------3-----2-------|-----0--------3--2----|--------3-----2-------|-----0--------3--2----|
  |-----4----------------|-----------0----------|-----4----------------|-----------0----------|
  |--2-------------------|--2-------------------|--2-------------------|--2-------------------|
  |----------------------|----------------------|----------------------|----------------------|
  |----------------------|----------------------|----------------------|----------------------|

             
     E  E  E  E  E  E       E  E  E  E  E  E       E  E  E  E  E  E       E  S S  E  E  E  E
  |-----------3-----0----|--------2-------------|-----------3-----0----|------<12>--------------|
  |--------3-----2-------|-----0--------3--2----|--------3-----2-------|-----0----7-----3--2----|
  |-----4----------------|-----------0----------|-----4----------------|-------------0----------|
  |--2-------------------|--2-------------------|--2-------------------|------------------------|
  |----------------------|----------------------|----------------------|--7---------------------|
  |----------------------|----------------------|----------------------|------------------------|

                           |-------------------3--------------------|                   
     E  E  E  E  E  E      T T E  T T E  T T E  T T E  T  T  E  T T E       E  E  E  E  E  E
  |-----------3-----0----|-7-7-7--6-6-6--8-8-8--7-7-7--11-11-11-8-8-8----|--7--------3-----0----|
  |--------3-----2-------|-----------------------------------------------|-----0--3-----2-------|
  |-----4----------------|-----------------------------------------------|----------------------|
  |--2-------------------|-----------------------------------------------|----------------------|
  |----------------------|-7---------------------------------------------|--7-------------------|
  |----------------------|-----------------------------------------------|----------------------|

                            ^                                   |--3--|
     E  E  E  E  E  E       E  E  E  E  E  E       E  E  E  E.  T  T  T E       S S E  S S E  E  S S
  |--0-----2-------------|-----------3-----0----|--------2------12p10p8s7----|--6h7------2h3-----------|
  |-----0--------3--2----|-----0--3-----2-------|-----0----------------------|------0--3------2--4s5---|
  |-----------0----------|--0-------------------|-----------0----------------|-------------------------|
  |--2-------------------|--2-------------------|--2-------------------------|-------------------------|
  |----------------------|--2-------------------|----------------------------|-------------------------|
  |----------------------|--0-------------------|--0-------------------------|--0----------------------|

                                                                                
     S S S S S S S. S. S. S.      S S H           E       E  E  E  E  E  E       S S S S S S S S S E.
  |----------------------------|------3-----------L----|--------------7-------|----10----10----10--------|
  |--0---0---0-----------------|------3-----------L----|--2--------0-----7----|------8-----8-----8-------|
  |----2---2-----2-----0-------|----0------------------|--------0-------------|--9-----11----11----11----|
  |------------4----4-----0----|--2--------------------|-----2----------------|--------------------------|
  |----------------------------|-----------------------|----------------------|--------------------------|
  |--3-----------2-------------|--0--------------------|--0-------------------|--0-----------------------|

  |----RALL---------->40BPM ^                                                          
     E  E  E  Q.            S S S S H                H.                                          
  |----------------------|--3-----2-3-------------|--L-------------------||
  |--2--3--2--0----------|--3---3-----------------|--L-------------------||
  |--------0-------------|--0-0-------------------|--L-------------------||
  |-----2----------------|--2---------------------|--L-------------------||
  |----------------------|------------------------|----------------------||
  |--0-------------------|--0---------------------|--L-------------------||
Login or Register to remove this ad.