Day and Night (Shiki) Guitar Tab

Submitted: Jun 22, 2018 by GomiNoUmi

5
Average: 5 (3 votes)
Download | Listen
Game: Shiki
Composer(s): Yasuharu Takanashi
Style: Arrangement, Fingerstyle

AutoScroll: Slow | Medium | Fast
Title: Day and Night
Composer: Yasuhara Takanashi
Anime: Shiki
Song: https://www.youtube.com/watch?v=w6DlthZnUjY
Arrangement by: GomiNoUmi
Made: 5.4.2018

Capo on 3rd fret 
Rhythm 3/4

     E  E  E  E  E  E     E  E  E  E  E  E     E  E  E  E  E  E     E  E  Q    E  E   
E||--5-----------------|--3-----------------|--0--------0--------|-------------------|
B||-----------0--3--1--|--------------1--0--|--------3--0--1--3--|----------------0--|
G||--------2-----------|--------0--2--------|--------2-----------|--2-----2----0-----|
D||-----2--------------|-----2--------------|-----2--------------|-----2-------------|
A||--0-----------------|--0-----------------|--0-----------------|--0----------------|
E||--------------------|--------------------|--------------------|-------------------|


  E  E  E  E  E  E     E  E  E  E  E  E     E  E  E  E  E  E     E  E  E  E  E  E   
--5-----------------|--3-----------------|--0--------0--------|--------3-----0--3--|
-----------0--3--1--|--------------1--0--|--------3--0--1--3--|--0--3-----1--------|
--------2-----------|--------0--2--------|--------2-----------|--------0--------0--|
-----2--------------|-----2--------------|-----2--------------|-----0--------2-----|
--0-----------------|--0-----------------|--0-----------------|--2--------3--------|
--------------------|--------------------|--------------------|--------------------|


                                                                            >  >   
  E  E  Q    E  E     E  E  E  E  E  E     E  E  E  E  E  E     E  E  E  E  E  E   
-----0--5----------|--------------------|--------------------|--------------------|
-------------3--1--|--------------1--0--|-----------0--3--1--|-----------------0--|
--2-----2----------|--------0--2--------|--------2-----------|--------2-----0-----|
-----2-------------|-----2--------------|-----2--------------|-----2-----2--------|
--0----------------|--0-----------------|--0-----------------|--0-----------------|
-------------------|--------------------|--------------------|--------------------|


  >           >        >                    >     >     >        >                  
  E  E  E  E  E  E     E  E  E  E  E  E     E  E  E  E  E  E     E  E  E  E  E  E   
--------------------|--0-----------------|--------0-----2-----|--0-----------------|
--1-----------------|--------------1--0--|--3--------0--3-----|--------------1--0--|
--------2-----2-----|--------0--2--------|--------2--------2--|--------0--2--------|
-----2-----2-----2--|-----2--------------|-----2--------------|-----2--------------|
--0-----------------|--0-----------------|--0-----------------|--0-----------------|
--------------------|--------------------|--------------------|--------------------|


  >           >        >           >        >                                       
  E  E  E  E  E  E     E  E  E  E  E  E     E  E  E  E  E  E     E  E  E  E  E  E   
--5-----------0-----|--3-----------------|--0-----------------|--------------------|
-----------0-----0--|--------------3-----|-----------0--3--1--|--------------------|
--------2-----------|--------0--2-----2--|--------2-----------|--------0--------0--|
-----2--------------|-----2--------------|-----2--------------|-----0--------2-----|
--0-----------------|--0-----------------|--0-----------------|--2--------3--------|
--------------------|--------------------|--------------------|--------------------|


  >     >     >        >                    >     >     >        >                  
  E  E  E  E  E  E     E  E  E  E  E  E     E  E  E  E  E  E     E  E  E  E  E  E   
--------------------|--0-----------------|--------0-----2-----|--0-----------------|
--1-----0-----------|--------------1--0--|--3--------0--3-----|--------------1--0--|
--------------2-----|--------0--2--------|--------2--------2--|--------0--2--------|
-----2-----2-----2--|-----2--------------|-----2--------------|-----2--------------|
--0-----------------|--0-----------------|--0-----------------|--0-----------------|
--------------------|--------------------|--------------------|--------------------|


  >           >        >           >        >                                      
  E  E  E  E  E  E     E  E  E  E  E  E     E  Q    E  E  E     E  E  E  E  E  E   
--------------------|--------------------|-------------------|--------3-----0--3--|
--1-----------3-----|--0-----------1-----|----------0--3--1--|--0--3-----1--------|
--------2-----------|--------0-----------|--2----------------|--------0--------0--|
-----2-----2-----2--|-----0-----0-----0--|-----2-------------|-----0--------2-----|
--0-----------------|--------------------|--0----------------|--2--------3--------|
--------------------|--3-----------------|-------------------|--------------------|


                                                 >  >  >  >     >          >  >   
  E  E  Q    E  E     E  E  E  E  E  E     E  E  E  E  E  E     E  E  Q    E  E   
-----0--5----------|--------------------|-----------0--------|-------------------|
-------------3--1--|--------------1--0--|--------3--0--1--3--|----------------0--|
--2-----2----------|--------0--2--------|--------2-----------|--2-----2----0-----|
-----2-------------|-----2--------------|-----2--------------|-----2-------------|
--0----------------|--0-----------------|--0-----------------|--0----------------|
-------------------|--------------------|--------------------|-------------------|


                                   >              >  >  >  >                        
  E  E  E  E  E  E     E  E  E  E  E  E     E  E  E  E  E  E     E  E  E  E  E  E   
--------------------|--------------------|-----------0--------|--------3-----0--3--|
-----------0--3--1--|--------------1--0--|--------3--0--1--3--|--0--3-----1--------|
--------2-----------|--------0--2--------|--------2-----------|--------0--------0--|
-----2--------------|-----2--------------|-----2--------------|-----0--------2-----|
--0-----------------|--0-----------------|--0-----------------|--2--------3--------|
--------------------|--------------------|--------------------|--------------------|


  >  >  >    >        >                    >     >     >        >                  
  E  E  Q    E  E     E  E  E  E  E  E     E  E  E  E  E  E     E  E  E  E  E  E   
-----0--5----------|--0-----------------|--------0-----2-----|--0-----------------|
--1----------------|--------------1--0--|--3--------0--3-----|--------------1--0--|
--2-----2----2-----|--------0--2--------|--------2--------2--|--------0--2--------|
-----2----------2--|-----2--------------|-----2--------------|-----2--------------|
--0----------------|--0-----------------|--0-----------------|--0-----------------|
-------------------|--------------------|--------------------|--------------------|


  >           >        >           >        >                                       
  E  E  E  E  E  E     E  E  E  E  E  E     E  E  E  E  E  E     E  E  E  E  E  E   
--5-----------0-----|--3-----------------|--0-----------------|--------------------|
-----------0-----0--|--------------3-----|-----------0--3--1--|--------------------|
--------2-----------|--------0--2-----2--|--------2-----------|--------0--------0--|
-----2--------------|-----2--------------|-----2--------------|-----0--------2-----|
--0-----------------|--0-----------------|--0-----------------|--2--------3--------|
--------------------|--------------------|--------------------|--------------------|


  >     >     >        >                    >     >     >        >                  
  E  E  E  E  E  E     E  E  E  E  E  E     E  E  E  E  E  E     E  E  E  E  E  E   
--------------------|--0-----------------|--------0-----2-----|--0-----------------|
--1-----0-----------|--------------1--0--|--3--------0--3-----|--------------1--0--|
--------------2-----|--------0--2--------|--------2--------2--|--------0--2--------|
-----2-----2-----2--|-----2--------------|-----2--------------|-----2--------------|
--0-----------------|--0-----------------|--0-----------------|--0-----------------|
--------------------|--------------------|--------------------|--------------------|


  >           >        >           >        >                                      
  E  E  E  E  E  E     E  E  E  E  E  E     E  Q    E  E  E     E  E  E  E  E  E   
--------------------|--------------------|-------------------|--------3-----0--3--|
--1-----------3-----|--0-----------1-----|----------0--3--1--|--0--3-----1--------|
--------2-----------|--------0-----------|--2----------------|--------0--------0--|
-----2-----2-----2--|-----0-----0-----0--|-----2-------------|-----0--------2-----|
--0-----------------|--------------------|--0----------------|--2--------3--------|
--------------------|--3-----------------|-------------------|--------------------|


  E  E  E  E  E  E     Q.     E  E  E     E  E  E  E  E  E     Q.     E  E  E   
-----------------0--|------------------|-----------------0--|------------------|
-----1--0--1--3-----|--1---------------|-----1--0--1--3-----|--0---------------|
--------------------|------------2-----|--------------------|------------2-----|
--2-----------------|---------2-----2--|--2-----------------|---------2-----2--|
--0-----------------|--0---------------|--0-----------------|--0---------------|
--------------------|------------------|--------------------|------------------|


                                         |-3-|                                    
  E  E  E  E  E  E     Q.     E  Q       S S S Q    E  Q       E  E  E  E  E  E   
-----------------0--|-----------------|---------------------|--------------------|
-----1--0--1--3-----|------------1----|--0-1-0-L------------|--0--------1--------|
--------------------|--2--------------|----------------0----|--------0--------0--|
--2-----------------|---------2-------|-------------2-------|-----0--------2-----|
--0-----------------|--0--------------|--0------------------|--2--------3--------|
--------------------|-----------------|---------------------|--------------------|


  E  E  E  E  E  E     E  E  E  E  E  E     E  E  E  E  E  E     E  E  E  E  E  E   
--5-----------------|--------------1-----|--0-----------------|--------------------|
--------------------|--1-----------------|--------------1-----|--------------1-----|
--2-----------2-----|--------------2-----|--------2--------2--|--------2--------2--|
--------3--------3--|--------3-----------|-----2-----2--------|-----2-----2--------|
-----3-----3--------|-----3-----3-----3--|--0-----------------|--0-----------------|
--1-----------------|--1-----------------|--------------------|--------------------|


  E  E  E  E  E  E     E  E  E  E  E  E     E  E  E  E  E  E     E  E  E  E  E  E   
--3-----------------|--------------------|--------------------|--------------------|
--------------------|--0-----------3-----|--1-----------------|--------------------|
--------------0-----|--------------0-----|--------2-----------|--------2-----------|
--------0--------0--|--------0--------0--|-----2-----2-----2--|-----2-----2-----2--|
-----2-----2--------|-----2-----2--------|--0-----------0-----|--0-----------0-----|
--3-----------------|--3-----------------|--------------------|--------------------|


  E  E  E  E  E  E     E  Q    E  E  E     E  E  E  E  E  E     E  E  E  E  E  E   
--2-----------------|-------------3-----|--5-----------------|--8-----------------|
--------3-----------|--3----------------|--------------------|--------------------|
-----2-----2-----2--|-----2----2-----2--|--------------5-----|--------------5-----|
--0-----------0-----|--0----------0-----|--------7--------7--|--------7--------7--|
--------------------|-------------------|-----7-----7--------|-----7-----7--------|
--------------------|-------------------|--5-----------------|--5-----------------|


  E  E  E  E  E  E     E  E  E  E  E  E     E  E  E  E  E  E     E  E  E  E  E  E   
--8-----------------|--7-----------------|--5-----------------|--3-----------------|
--------------------|--------0-----0-----|--------0-----0-----|--------0-----------|
--------5-----5-----|--------------------|--------------------|-----------0--------|
-----7-----7-----7--|-----7-----7-----7--|-----0-----0-----0--|-----0-----------0--|
--8-----------------|--8-----------------|--------------------|--------------2-----|
--------------------|--------------------|--3-----------------|--3-----------------|


  E  E  E  E  E  E     E  E  E  E  E  E     E  E  E  E  E  E     E  E  E  E  E  E   
--5-----------------|--------------1-----|--0-----------------|--------------------|
--------------------|--1-----------------|--------------1-----|--------------1-----|
--2-----------2-----|--------------2-----|--------2--------2--|--------2--------2--|
--------3--------3--|--------3-----------|-----2-----2--------|-----2-----2--------|
-----3-----3--------|-----3-----3-----3--|--0-----------------|--0-----------------|
--1-----------------|--1-----------------|--------------------|--------------------|


  E  E  E  E  E  E     E  E  E  E  E  E     E  E  E  E  E  E     E  E  E  E  E  E   
--3-----------------|--------------------|--------------------|--------------------|
--------------------|--0-----------3-----|--1-----------------|--------------------|
--------------0-----|--------------0-----|--------2-----------|--------2-----------|
--------0--------0--|--------0--------0--|-----2-----2-----2--|-----2-----2-----2--|
-----2-----2--------|-----2-----2--------|--0-----------0-----|--0-----------0-----|
--3-----------------|--3-----------------|--------------------|--------------------|


  E  E  E  E  E  E     E  Q    E  E  E     E  E  E  E  E  E     E  E  E  E  E  E   
--2-----------------|-------------3-----|--5-----------------|--8-----------------|
--------3-----------|--3----------------|--------------------|--------------------|
-----2-----2-----2--|-----2----2-----2--|--------------5-----|--------------5-----|
--0-----------0-----|--0----------0-----|--------7--------7--|--------7--------7--|
--------------------|-------------------|-----7-----7--------|-----7-----7--------|
--------------------|-------------------|--5-----------------|--5-----------------|


  E  E  E  E  E  E     E  E  E  E  E  E     E  E  E  E  E  E     E  E  E  E  E  E   
--8-----------------|--7-----------------|--5-----------------|--3-----------------|
--------------------|--------0-----0-----|--------0-----0-----|--------0-----------|
--------5-----5-----|--------------------|--------------------|-----------0--------|
-----7-----7-----7--|-----7-----7-----7--|-----0-----0-----0--|-----0-----------0--|
--8-----------------|--8-----------------|--------------------|--------------2-----|
--------------------|--------------------|--3-----------------|--3-----------------|


  E  E  E  E  E  E     E  E  E  E  E  E     E  E  E  E  E  E     E  E  Q    E  E   
--5-----------------|--3-----------------|--0--------0--------|-------------------|
-----------0--3--1--|--------------1--0--|--------3--0--1--3--|----------------0--|
--------2-----------|--------0--2--------|--------2-----------|--2-----2----0-----|
-----2--------------|-----2--------------|-----2--------------|-----2-------------|
--0-----------------|--0-----------------|--0-----------------|--0----------------|
--------------------|--------------------|--------------------|-------------------|


  E  E  E  E  E  E     E  E  E  E  E  E     E  E  E  E  E  E     E  E  E  E  E  E   
--5-----------------|--3-----------------|--0--------0--------|--------3-----0--3--|
-----------0--3--1--|--------------1--0--|--------3--0--1--3--|--0--3-----1--------|
--------2-----------|--------0--2--------|--------2-----------|--------0--------0--|
-----2--------------|-----2--------------|-----2--------------|-----0--------2-----|
--0-----------------|--0-----------------|--0-----------------|--2--------3--------|
--------------------|--------------------|--------------------|--------------------|


  >                   >                   >                                      
  E  E  Q    E  E     Q    E  E  E  E     Q    E  E  E  E     E  E  E  E  E  E   
-----0--5----------|-------------------|-------------------|--------------------|
--1----------------|--0----------------|----------0--3--1--|--------------1--0--|
--2-----2----2-----|-------2-----------|-------2-----------|--------0--2--------|
-----2----------2--|----------2-----2--|--2----------------|-----2--------------|
--0----------------|--0----------0-----|--0----------------|--0-----------------|
-------------------|-------------------|-------------------|--------------------|


  >                   >                   >                                      
  Q    E  E  E  E     Q    E  E  E  E     Q    E  E  E  E     E  E  E  E  E  E   
-------------------|-------------------|-------------------|--------------------|
--1----------------|--0----------------|-------------3--1--|--------------------|
-------2-----------|-------2-----------|--0----0--2--------|--------0--------0--|
----------2-----2--|----------2-----2--|-------------------|-----0--------2-----|
--0----------0-----|--0----------0-----|--0----------------|--2--------3--------|
-------------------|-------------------|-------------------|--------------------|


  E  E  E  E  E  E     T T T T Q    Q.       
--------------0-----|----------5-----------||
--------1--------1--|--------1-------------||
--2--------2--------|------2---------------||
-----2--------------|----2-----------------||
--0-----------------|--0-------------------||
--------------------|----------------------||




Duration Legend
---------------
W - whole
H - half
Q - quarter
E - 8th
S - 16th
T - 32nd
X - 64th
. - note dotted
|-n-|  - n-tuplets


Tablature Legend
----------------
L - tied note
x - dead note
g - grace note
(n) - ghost note
> - accentuded note
NH - natural harmonic
AH - artificial harmonic
TH - tapped harmonic
SH - semi harmonic
PH - pitch harmonic
h - hammer on
p - pull off
b - bend
br - bendRelease
pb - preBend
pbr - preBendRelease
brb - bendReleaseBend
\n/ - tremolo bar dip
\n - tremolo bar dive
-/n - tremolo bar Release up
/n\ - tremolo bar inverted dip
/n - tremolo bar return
-\n - tremolo bar Release down
S - shift slide
s - legato slide
/ -  slide into from below or out of upwards
\ -  slide into from above or out of downwards
~ - vibrato
W - wide vibrato
tr - trill
TP - tremolo picking
T - tapping
S - slap
P - pop
< - fade in
^ - brush up
v - brush down
Login or Register to remove this ad.