Ads

Watashi no Uso (Shigatsu wa Kimi no Uso) Guitar Tab

Submitted: Mar 09, 2017 by Ttegdap (Last updated: Mar 15, 2017)

5
Average: 5 (6 votes)
Download | Listen
Game: Shigatsu wa Kimi no Uso
Composer(s): Masaru Yokoyama
Style: Arrangement, Fingerstyle

This song is also called Your Lie

AutoScroll: Slow | Medium | Fast

Watashi no Uso (My Lies)
Your Lie in April
Composer: Masaru Yokoyama
Arrangement: WIlliam Padgett
Based on the Arrangement by AniMuffin

Drop D Tuning
Tempo ~ 55
3/4 time

     H        Q       H        S S S S    H        Q       H.            
E||--5-------------|-------------------|-----------7----|--8------------|
B||-----------5----|--0----------------|--8-------------|--5------------|
G||--5-------------|--7--------9-7-6-7-|----------------|--5------------|
D||----------------|-------------------|--9-------------|---------------|
A||--8-------------|--8----------------|--7-------------|--0------------|
D||----------------|-------------------|----------------|---------------|

 BPM=90                                     >     >     >        >     >     >
  E  E  E  E  E  E     E  E  E  E  E  E     E  E  E  E  E  E     E  E  E  E  E  E   
-----------------3--|--0-----------------|--------------------|--0-----------------|
--1-----------1-----|-----------3-----0--|--0-----1-----3-----|--------6-----8-----|
-----------2--------|--------------0-----|--------------------|-----0-----0-----0--|
--------3-----------|--------2-----------|-----3-----3-----3--|--------------------|
-----0--------------|-----2-----2--------|--------------------|--------------------|
--0-----------------|--2-----------------|--3-----------------|--5-----------------|


  E  E  E  E  E  E     E  E  E  E  E  E     E  E  E  E  E  E      H        Q     
-----------------3--|--0-----1-----3-----|--5-----7-----8-----|--10-------------|
--------------------|--0-----------------|--------------------|------------1----|
--2-----------2-----|--0--------------0--|-----5-----5-----5--|---0--------0----|
--3-----3-----------|--2--2--------------|--------------------|-----------------|
--0--0-----0--0-----|--2--------2--------|--8-----------------|-----------------|
--0-----------------|--2-----------------|--------------------|------------2----|


  H        Q       H.              Q    Q    Q       H        Q       H.            
----------------|---------------|-------3---------|----------------|---------------|
--3--------1----|--0------------|-----------------|--1-------------|---------------|
--2-------------|--0------------|--0---------0----|----------------|--2------------|
----------------|--0------------|-----------------|----------------|---------------|
----------------|---------------|--0--------------|-----------0----|---------------|
--3-------------|--5------------|-----------------|--2-------------|--3------------|


  H        Q       H.              E  E  E  E  E  E     E  E  E  E  E  E   
----------------|---------------|--------------------|--------0--3--------|
--0-------------|--1------------|--------------3--1--|-----3--------3--1--|
--2--------0----|---------------|-----------0--------|--0-----------------|
--0-------------|---------------|-----0--2-----------|--3-----------------|
----------------|--0------------|--------------------|--------------------|
--5-------------|---------------|--5-----------------|--------------------|


  E  E  Q    Q       E  E  Q    Q       E  E  Q    Q       H        Q     
--0----------1----|--0---------------|--0---------------|----------------|
--------3---------|--------1----3----|--0-----0---------|----------------|
--0--0-------2----|--0-----0---------|--------0----0----|-----------0----|
--2---------------|-----2------------|-----0------------|----------------|
------------------|--0---------------|------------------|----------------|
------------------|------------------|--5---------------|--2-------------|


  H.              Q    Q    Q       Q    Q     Q       Q    Q    Q     
---------------|-----------------|-------3S----7----|--5--------------|
---------------|-----------------|--3----0----------|-----------------|
---------------|------------0----|------------------|--5---------5----|
--2------------|-------0----2----|------------------|-------7---------|
---------------|-----------------|------------------|--8--------------|
---------------|--5--------------|------------------|-----------------|


  Q    Q    Q       Q    Q    Q       Q    Q    S S S S    Q    Q    Q     
-----------------|-----------------|------------0-------|--3--------------|
--5--------------|------------0----|--------------3-2-3-|--0--------------|
------------5----|--7--------------|------------4-------|------------0----|
--7----7---------|--5----5---------|-------5------------|-------0---------|
--8--------------|--8--------------|--8-----------------|-----------------|
-----------------|-----------------|--------------------|--2--------------|


  Q    Q    Q       Q    Q    Q       Q    Q    Q       E  E  E  E  E  E   
-----------------|-----------------|------------0----|--1--0-----1--0-----|
--0--------------|--1--------------|-------3---------|--------1--------1--|
------------0----|--0---------0----|------------0----|--2-----------------|
-------0---------|-------2---------|-------2---------|--------------3-----|
-----------------|--0--------------|--0--------------|--------0-----------|
--2--------------|-----------------|-----------------|--0-----------------|


  E  E  E  E  E  E     E  E  E  E  E  E     Q    Q    Q       Q    Q    Q     
--1--0-----1--0-----|--------------------|-----------------|--0--------------|
--1-----1--------1--|--6--5-----6--5-----|------------3----|--1---------1----|
--------2-----------|--------5--------5--|--4----5----4----|--0--------------|
--------------3-----|--------------5-----|--6----7---------|-------2---------|
--------------------|--------5-----------|-----------------|--0--------------|
--------------------|--5-----------------|--6--------------|-----------------|


  Q    Q    Q       Q    Q    Q       Q    Q    Q       Q    Q    Q     
-----------------|-----------------|-----------------|--5--------------|
--0--------------|--0--------------|-------3----5----|-----------------|
--2--------------|------------0----|--5----4----5----|--5---------5----|
-------2---------|-------0---------|--7---------5----|-------7---------|
------------0----|-----------------|-------5---------|--8--------------|
-----------------|--5--------------|--5--------------|-----------------|


  Q    Q    Q       Q    Q    Q       Q    Q    S S S S    Q    Q    Q     
-----------------|-----------------|------------0-------|--3--------------|
--5--------------|------------0----|--------------3-2-3-|--0--------------|
------------5----|--7--------------|------------4-------|------------0----|
--7----7---------|--5----5---------|-------5------------|-------0---------|
--8--------------|--8--------------|--8-----------------|-----------------|
-----------------|-----------------|--------------------|--2--------------|


  Q    Q    Q       Q    Q    Q       H.              H        Q     
--7--------------|--8--------------|---------------|-----------0----|
-----------------|-----------------|--5------------|--L-------------|
------------0----|------------5----|---------------|----------------|
-------0---------|-------5---------|---------------|----------------|
--7--------------|--0--------------|---------------|----------------|
-----------------|-----------------|---------------|----------------|


              rall. - - - - - - - - - - - - - - - - - - - - - - - - - - - - - - - - 
  E  E  E  E  E  E     H        Q       H.              H.              H.             
--1--0--------------|----------------|---------------|---------------|---------------||
--------1-----------|----------------|---------------|--0------------|--1------------||
--2--0-----0--------|----------------|--0------------|---------------|--0------------||
--------------3--2--|----------------|---------------|---------------|--2------------||
--------------------|--3-------------|---------------|---------------|--3------------||
--------------------|-----------5----|---------------|---------------|---------------||
Login or Register to remove this ad.