Ads

Orange (Episode 22 Version) (Shigatsu wa Kimi no Uso) Guitar Tab

Submitted: Jun 21, 2015 by Otakusician

4.846155
Average: 4.8 (13 votes)
Download | Listen
Game: Shigatsu wa Kimi no Uso
Composer(s): Masaru Yokoyama
Style: Arrangement, Fingerstyle

Click here for a video example.

AutoScroll: Slow | Medium | Fast
     Q    E  S S E  S S E  S S    E  E  E  E  E  E  E  E   
E||--0----0---------7-5-L----0-|--------------------0-----|
B||--0-------7-8-L-------------|-----------1--L--3-----3--|
G||--0---------------------7---|--------0-----------------|
D||----------------------------|-----2--------------------|
A||----------------------------|--3-----------------------|
E||--0-------------------------|--------------------------|


  E  E  E  S S E  E  E  S S    E  E  E  E  Q    Q     
----------------------------|------------------------|
--------3--3-3----1--0--1-0-|-----------3--3---------|
-----2----------------------|--------0-----0----2----|
--0------------0------------|-----0-------------0----|
----------------------------|------------------------|
----------------------------|--3---------------------|


  E  S S E  E  E  E  E  E     E  E  E  E  E  S S S E  S  
------------3--2-----------|--7--------7--5--3-3---0--2-|
--1--1-1----------------1--|-----------------0----------|
---------0--------2--------|--------7------------0------|
-----2---------0-----0-----|----------------------------|
--3------------------------|-----9----------------------|
---------------------------|--7-----------0-------------|


  E  E  E  E  E  Q    E     E  E  E  E  E  E  E  E   
--3--------3--3--2----3--|--3--------3--L-----------|
--------------3----------|--0--------------0--------|
--------0-----2----------|--------0-----------0-----|
-----2--------0----------|-----0-----------------0--|
--3----------------------|--------------------------|
-------------------------|--3-----------------------|


  E  S S E.  S S S E  S E  S    Q    E.  S S S S S S E  S  
-----0-2-3---7-5-3-5----2--3-|--5----5---7-5---------0--2-|
---------1-------------------|-------3-------8-7-8--------|
---------2-------------------|-------4-------------0------|
---------2-----0------0------|----------------------------|
--0------0-------------------|--2-------------------------|
-----------------------------|-------------0--------------|


  E  S S E  E  E  E  E  E     E  S S E  S S E  E  E  E   
--3--3-3----3-----------8--|--8--7-7----5-7-------------|
------------1--7-----------|-------------------0--------|
---------0--------7--7-----|--0------0------0-----0-----|
-----2---------0-----------|-------------------------0--|
--3------------------------|----------------------------|
---------------------------|----------------------------|


  E  S S E.  S S  S S  S S E  S    E  E  E  S S S S S S E  S S  
-----8-8-8---8-8----------------|--5-----5--5-7-5-3-2-3----0-2-|
-----------------10-8-10---7--8-|-----4------------------------|
--------------------------------|--4---------------------------|
---------7-----0---------0------|-----------------------2------|
--0-----------------------------|-------------------2------2---|
--------------------------------|---------------0--------------|


  E  E  E  E  E  E  E  E      E   E  E  E  Q    E  E   
--3--------0--3--0--3--0--|--10------8-------------7--|
--1-----1-----1-----1-----|-------------8--L----0-----|
-----------0-----------0--|-------------8--L-------0--|
-----2-----------2--------|---------------------------|
--3-----------------------|------10-------------------|
--------------------------|---8-----------------------|


  E  E  E  E  E  E  E  E     E  E  E  Q    E  E  E   
--5-----------------2-----|--3--3-----2-------------|
--------3-----------3-----|--3--3-----3-------------|
-----2-----2-----2-----2--|--2----------------0--2--|
--0-----------0-----------|----------------0--------|
--------------------------|-------------------------|
--------------------------|-------------------------|


  E  E  E  S S E  E  E  E     E  S S S E  S Q    Q     
---------------------------|--------------------------|
--1--------0-0-L-----------|-----------0--0-----------|
--0-----0--0-0-L--0-----0--|--2--2-2-------------0----|
-----0---------------0-----|--1------1----------------|
---------------------------|----------------2---------|
--3---------------------3--|--------------------------|


  E  E  E  S S E  E  E  E     E  S S E  S S E  E  E  E   
---------------------------|----------------------------|
--1--------0-0-L-----------|------------3-0-------------|
--0-----0--0-0-L--0-----0--|--2--2-2--------------0--0--|
-----2---------------2-----|--0------0---------0--------|
---------------------------|----------------------------|
--0------------------------|----------------3-----------|


  E  E  E  E  Q    E  S S    E  E  E  E  E  E  E  S S  
--------------------------|-----0---------------------|
--3--1--0--1--3-------3-3-|--3-----3------------------|
--------0----------2------|--------4-----0------------|
-----2-----2--0-----------|-----4-----4--------2--2-2-|
--3-----------------------|--2--------------2-----2---|
--------------------------|--------------0------------|


  E  S S E  E  E  E  E  S S    E  E  E  E  Q    E  E   
----------------------------|-----------3-------------|
--0-------------------------|--------------3----------|
-----2-2-------0----------0-|--------0-----0----------|
-----2------2-----4--2--4---|-----0-------------2--2--|
--0------0------------------|-------------------------|
----------------------------|--3----------------------|


  E  S S E  E  S S E  E  S S    Q    E  S S E  S S S E  S  
-----------------------------|--------------5--5-3-L-2--3-|
--0--1-1----1--L-1-1--1--1-1-|--4----4--4-4---------------|
------------0--L-0-0--0--0-0-|--5-------------------------|
---------2--2--L-2-2--2--2-2-|--5-------------------------|
--3---------3--L-3-3--3--3-3-|--3-------------------------|
-----------------------------|----------------------------|


  E  E  E  E  E  E  E  E     W                  
-----------3--L-----------|--3----------------||
-----------------0--------|--0----------------||
--------0-----------0-----|--0----------------||
-----0-----------------0--|--0----------------||
--------------------------|--2----------------||
--3-----------------------|--3----------------||
Login or Register to remove this ad.

3 comments on Orange (Episode 22 Version)

Good work Otacon! I mean

5

Good work Otacon! I mean Otakumusican... this series had some great music glad to see some of it make it to gametabs.

i need some help reading

3

i need some help reading this...

What are you having trouble

What are you having trouble with?