Ads

Nanairo Symphony (Jajnov's Version) (Shigatsu wa Kimi no Uso) Guitar Tab

Submitted: Sep 04, 2015 by Coolbreeze

5
Average: 5 (7 votes)
Download | Listen
Game: Shigatsu wa Kimi no Uso
Composer(s): Masaru Yokoyama
Style: Arrangement, Fingerstyle, Transcription

This song is also called Opening Theme 2

AutoScroll: Slow | Medium | Fast
			Nanairo Symphony
		~Shigatsu wa Kimi no Uso Opening 2~

Arranged by Jorge Mejia
Tabbed by Coolbreeze
Capo : Fret 3
Tempo = 120



     S S S E  E  Q    E  S S S    Q    S. S. S S S E  S. S. S  
E||-------------------5--3-2---|-----------------0------------|
B||--------3--2--------------3-|--L----1--0--------------0--3-|
G||------2-------2-------------|-------------3-2---2--2-------|
D||--2-4-----------------------|-----------------2------------|
A||-------------------2------3-|--L------------0---0----------|
E||--0-----2-----3-------------|------------------------------|


  E  E  E  E  E  S E.  E     E  E  E  E  E  S E.  E   
--0--2--0-----0--2-2---0--|-----0--2--3--5----5------|
-----------3--------------|--3--------------2--------|
--------------------------|--2-----------------------|
--0-----------------------|--------------------------|
--------------4--------0--|--2-----------------------|
--------------------------|--------------2--------2--|


  S S S E  S S E  E  E  S S S    S S S S S S S S S S S S S S S S  
--------0---------------------|----------------------------------|
------0----0---0------------0-|--2-0-2-0-2-0-2-0-2-0-2-0-2-4-2-0-|
----0--------0------------1---|----------------------------------|
------------------------4-----|----------------------------------|
------------------------------|--2-----2---------2-----2---------|
--0-----3---------2--2--------|----------------------------------|


  E.  E.  S S E.  E  S S S    S S S S S S S S S S S S S S S S  
---------------------------|----------------------------------|
--2----------------------0-|--2-0-2-0-2-0-2-0-2-0-2-0-2-4-2-0-|
--0--------------------1---|----------------------------------|
---------------------4-----|----------------------------------|
--2---2---L---2---2--------|----------------------------------|
------------2--------------|--4-----4---------4-----4---------|


  E.  E.  S S E.  E  S S S    S S S S S S S S S S S S S E  S  
-------------------------2-|--4-2-2-2-0-0-0----------------0-|
---------------------4-4---|----------------4-4-4-2-2-4-4----|
--2------------------------|---------------------------------|
---------------------------|--2-----2---------2-----2--------|
------------0-2---2--------|---------------------------------|
--2---2---2----------------|---------------------------------|


  E.  E.  S S E.  E  S S S    S S S S S S S S S S S S S S S S  
--2------------------------|----------------------------------|
---------------------0-0-2-|--4-2-2-2-2-0-0-0-0-------------2-|
---------------------------|--------------------3-3-1-1-3-3---|
--1---1---1----------------|----------------------------------|
------------2--------------|--4-----4-------------------------|
--------------4---4--------|------------------2-----2---------|


  S E  E.  S S E.  E  E  S    E.  S E.  S E  S E  S S S  
-------------------------4-|--4---4-4---4-4--2-0--2-4-2-|
--2-0-----------------0----|----------------------------|
---------------------------|----------------------------|
---------------------------|--2---2-------2----2--------|
--2----2---2---4---2-------|----------------------------|
-------------2--------2----|----------------------------|


  E.  S E.  S E  S E  S E     E.  S E  E  E  S S E  E   
--2---2-2---2-2--0----0-2--|--0---0-0------------------|
-------------------4-------|--------------4------4--2--|
---------------------------|-----------------3---0--0--|
--1---1--------------------|-----------2--1----1-------|
---------------------------|--4---4--------------------|
--------------4----4-------|---------------------------|


  E  S S E  E  E.  S E  E     E.  S E.  S S E  E  S  S  S  
---------------4---2-2-----|--4---4-4---4-4-2--0--2h-4p-2-|
--2--0------0------4-------|--5---------------------------|
---------3-----------------|------------------------------|
---------------------------|--2---2-------2----2----------|
------------1--2---2-------|------------------------------|
--4----4----------------2--|------------------------------|


        |--3--|                                             
  E.  S E  E  E  E  S S E  E     E  S S E  E  E  S S E  E   
--2-----2--4--6--7--2------2--|--5--3---3--2--2--0------2--|
------------------------4-----|----------------------3-----|
------------------------------|----------------------------|
--1---1-----------------------|------------0---------------|
------------------------------|----------------------------|
-----------------4----4-------|--3----3-------3----3-------|


          |--3--|         |--3--|                                  
  S S S S E  E  E  S S E  E  E  E     E  S S S S S S E  S E  S E   
-----------------------------------|--0--2---0-------0--2-2-------|
-----------------------------0--3--|-------------3----------------|
--------3-----------------2--------|------------------------------|
------4----------------------------|--0--0-0-0-0-0-0--------------|
----4-----3--2--1--0-0-0-----------|-----------------4--4-4--4-0--|
--2--------------------------------|------------------------------|


  E  S S S S E  E  S E  S S S    S. S. S S. T S S E  S T T S S S S  
-----0---2---3--5----5------5-|--5--3--3-3--2---2-2----3-2-0-----5-|
--3----------------2----------|------------------------------------|
------------------------------|------------------------------------|
------------------------------|------------------------------------|
--2--2-2-2-2-2----------------|------------------------------------|
----------------2--2-2--2-2-2-|--3--3--3------3---2--2-------2-2-3-|


  S. S. S T X T. T S S E  S T T S S S S    E  S S S S E  E  S E  S E   
--5--3--3-3-5-3--2---2-2----3-2-0-------|--0--2---0------0--2-2-------|
--------------------------------2-------|-------------3---------------|
--------------------------------2-------|-----------------------------|
----------------------------------------|--0--0-0-0-0-0---------------|
--3--3--3----------3---0--0-------0-0-0-|----------------4--4-4--4-0--|
----------------------------------------|-----------------------------|


  E  S S E  S S S S S S E  E     E  S S S S E  E  E  E  E   
-----0---2--3---5-------2--0--|----------------3--2-----0--|
--3---------------------------|--3-------------5-----3-----|
------------------------------|--4----------2--------------|
------------------------------|----------------------------|
--2--2-2-1--1-1-0-0-0-0-------|----------------0-----------|
------------------------------|--3--3-3-3-3-3--------------|


  E.  T T H.             
--0--------------------||
------3-2-3------------||
-----------------------||
--0--------------------||
-----------------------||
-----------------------||
Login or Register to remove this ad.

1 comment on Nanairo Symphony (Jajnov's Version)

Actually just started a

Actually just started a re-watch of this series, some very nice tunes in this some tabs are always welcome.

Although their choice of actual classic pieces to play was a bit disappointing at times.