Aka no Seijaku (Solo) (Shakugan no Shana) Guitar Tab

Submitted: Apr 10, 2011 by Caldron (Last updated: Feb 10, 2014)

5
Average: 5 (1 vote)
Download | Listen
Game: Shakugan no Shana
Composer(s): Yoko Ishida
Style: Artificial harmonics, Transcription, Tremolo

This song is also called Ending Theme 2

Click here for a video example.

AutoScroll: Slow | Medium | Fast
                                Aka no Seijaku                                   


80 BPM

Tabbed by Caldron

Electric Guitar
      H         E   E   E     E     E  E    E  Q.      E     E   
E||----------------10------------|------------------------------|
B||--10b--------L---L--10pbr--8--|--7--8S--10-------------------|
G||------------------------------|-------------7~---------------|
D||------------------------------|---------------------7pbr--5--|
A||------------------------------|------------------------------|
E||------------------------------|------------------------------|


                        PMPM     PMPM PM PM PM                   SH     
  E  E    E  H          S S      S S  S  S  S  S  S S S S S S    Q      
-----------------------------|-----------------------------------------|
-----------------------------|------------------------7---8---<>10~----|
-----------------------------|----------------------7---7---7----------|
--4--5--5g7------------------|--------7-----9--9-10--------------------|
-------------5~-----------7--|--10-7-----7-----------------------------|
-----------------------10----|-----------------------------------------|


      S. S  S.    S. S  S. Q.       E   
-----------------------------------15--|
--10g13-12-13-13g15-13-15-15b----------|
---------------------------------------|
---------------------------------------|
---------------------------------------|
---------------------------------------|


   E      S  S  S  S  S  E     S  Q.       
------------------------------------------|
--15pbr--13-12-13----12-------------------|
------------------14----14br--12-11~------|
------------------------------------------|
------------------------------------------|
------------------------------------------|


  T T  T T T T.  T.T. T T T T T. T T. T T  T.S   T  Q      
--8-7-----------------------------------------------------|
------10-8---8--10-8--------------------------------------|
-----------9----------9-7---7-9--7------------------------|
--------------------------9--------9--8-7----7------7~----|
------------------------------------------10---(10)-------|
----------------------------------------------------------|


  S  S S  S X  T. S S S  S  S  X   T. Q     S  
-------------------------------------10~------|
--------------------8---10----10s-12----------|
------------------7---7----12-----------------|
-------7----7s-9------------------------------|
--7-10---10-----------------------------------|
----------------------------------------------|


     \1/                                                                 
  S  E   S  S. S. S.  S  S. S  S. S. S     S. S. S  S. S. S  Q.     E    
----17--17-17-16-17-/19-17-16-17-16----|-------------------------------||
------------------------------------17-|-------------------------------||
---------------------------------------|--16-14-13-14-13---------------||
---------------------------------------|-----------------14------------||
---------------------------------------|--------------------14---------||
---------------------------------------|-------------------------------||




Duration Legend
---------------
W - whole
H - half
Q - quarter
E - 8th
S - 16th
T - 32nd
X - 64th
. - note dotted
|-n-|  - n-tuplets


Tablature Legend
----------------
L - tied note
x - dead note
g - grace note
(n) - ghost note
> - accentuded note
NH - natural harmonic
AH - artificial harmonic
TH - tapped harmonic
SH - semi harmonic
PH - pitch harmonic
h - hammer on
p - pull off
b - bend
br - bendRelease
pb - preBend
pbr - preBendRelease
brb - bendReleaseBend
\n/ - tremolo bar dip
\n - tremolo bar dive
-/n - tremolo bar Release up
/n\ - tremolo bar inverted dip
/n - tremolo bar return
-\n - tremolo bar Release down
S - shift slide
s - legato slide
/ -  slide into from below or out of upwards
\ -  slide into from above or out of downwards
~ - vibrato
W - wide vibrato
tr - trill
TP - tremolo picking
T - tapping
S - slap
P - pop
< - fade in
^ - brush up
v - brush down
Login or Register to remove this ad.

1 comment on Aka no Seijaku (Solo)

Live

http://www.youtube.com/watch?v=hyd2vhKHcbs#t=215