Game Over (Shadowgate) Bass Tab

Submitted: Mar 09, 2013 by Super Fighting Robot

0
Download | Listen
Game: Shadowgate
Composer(s): Unknown
Style: Transcription

AutoScroll: Slow | Medium | Fast
You're Dead... Again! - Shadowgate

I think the title of piece is actually "Game Over," but any fellow
victims of this game's cruelty would certainly find my alternate title more appropriate.

Standard tuning (EADG)

Timing is 4/4.  All notes are 1/2 notes.


|------------------|------------------|------------------|------------------|
|------------------|------------------|------------------|------------------|
|3--------1--------|---------1--------|3--------1--------|---------1--------|
|------------------|4-----------------|------------------|4-----------------|

|------------------|------------------|------------------|------------------|
|------------------|------------------|3--------1--------|---------5--------|
|3--------1--------|------------------|------------------|5-----------------|
|------------------|4--------3--------|------------------|------------------|

|------------------|------------------|------------------|------------------|
|5--------3--------|---------3--------|5--------3--------|---------3--------|
|------------------|6-----------------|------------------|6-----------------|
|------------------|------------------|------------------|------------------|

|------------------|------------------|------------------|------------------|
|5--------3--------|------------------|------------------|------------------|
|------------------|6--------5--------|3--------1--------|---------5--------|
|------------------|------------------|------------------|5-----------------|
Login or Register to remove this ad.

2 comments on Game Over

You're Dead... Again!

I tried to call this piece "You're Dead... Again!" but the administrator would not allow it. :( All in favor say "Aye"!

Good job

Nice to see some bass tabs for that game ^^