Memories (Shadow of the Colossus) Guitar Tab

Submitted: Sep 06, 2009 by natenmn

5
Average: 5 (3 votes)
Download | Listen
Game: Shadow of the Colossus
Composer(s): Kow Otani
Style: Arrangement, Fingerstyle

AutoScroll: Slow | Medium | Fast
                  Memories - Shadow of the Colossus
                             Koh Otani 
                    (Arranged by Nathan Nordstrom)


Tab: Nathan Nordstrom
(Based on XaldBalghostriped's piano arrangement)
9/6/2009                                                              


                                                                       
Classical Guitar 1 (Capo 3)
*Please note the tuning*


     4/4 50bpm

                           |-3|                             
      E  E  E  E  E  E  E  E  S    E  E  E  E  E  E  E  E   
E ||--4-----------4-----7-----7-|--0-----------------------|
B ||--------0-----------0-------|--------0--------------0--|
G#||-----0-----0-----0-----0----|-----0-----0-----0--1-----|
C#||--3-----------2-------------|--0-----------------------|
A ||----------------------------|--------------2-----------|
E ||----------------------------|--------------------------|


                       |-3|                        |--3-|      
  E  E  E  E  E  E  E  E  S    E   E  E  E   E  E  S  S S  E   
--2-----------4-----7-----7-|---------------10--8--7h-8-7p-5--|
--------2-----------0-------|---------------------------------|
----------------------------|--8------------------------------|
-----5-----5-----3----------|---------8-----------------------|
--0--------------------7----|--8---------7---8----------------|
--------------4-------------|-----10--------------------------|


                        |-3-|                              
  E  E  E  E  E  E   E  E   S     E  E  E  E  E  E  E  E   
--4-----------7-----11-----11-|--12--------------------0--|
--------0------------0--------|---------------------4-----|
-----0-----0-----0------0-----|------0--1--0-----0--------|
--3---------------------------|---0-----------------------|
--------------6---------------|---------------2-----------|
------------------------------|---------------------------|


  E  E  E  E  E  E  E  E     E  E  E  E  E  E  E  E   
--------0-----------------|--------------------------|
--7-----------------0-----|--------------0-----------|
--------------5-----------|--6-----5-----------------|
-----5-----8--------------|--5--------5--------8-----|
--0--------9-----7-----7--|-----5-----5-----5-----5--|
--------------------------|--------------------------|


  E  E  E  E  E  E  E  E     E  E  E  E  E  E  E  E   
--------------------0-----|--4--2--------------------|
--------------------------|--------5--3--2-----0-----|
--1-----1-----------1-----|--------------------------|
-----0-----0--------------|--------------------------|
-----------------3-----3--|-----2-----2-----2--5--2--|
--0-----------0-----------|--0-----------------------|


  E  E  E  E  E  E  E  E     T T E  E  E  E  Q    T  T  E   
--------------0-----2-----|------9-----------7----9p-7p-5--|
--2-----3-----2-----3-----|--7---------0-------------------|
--------3-----------------|----7----------5--7-------------|
-----3-----3-----3-----3--|--------------------------------|
--0-----------------------|---------9----------------------|
--------------------------|------7-------------------------|


 Slow Tempo--------------------------------------

                                        ^                              
  E  E  E  E  E  E  E   E      H        H           W                  
--4-----0-----0--4--5--11--|--12-----------------|-------------------||
-----------4---------------|------------0--------|--L----------------||
-----0---------------------|---0-----------------|-------------------||
--3------------------------|------------5--------|--L----------------||
---------------------------|------------2--------|--L----------------||
---------------------------|------------0--------|--L----------------||




Duration Legend
---------------
W - whole
H - half
Q - quarter
E - 8th
S - 16th
T - 32nd
X - 64th
. - note dotted
|-n-|  - n-tuplets


Tablature Legend
----------------
L - tied note
x - dead note
g - grace note
(n) - ghost note
> - accentuded note
NH - natural harmonic
AH - artificial harmonic
TH - tapped harmonic
SH - semi harmonic
PH - pitch harmonic
h - hammer on
p - pull off
b - bend
br - bendRelease
pb - preBend
pbr - preBendRelease
brb - bendReleaseBend
\n/ - tremolo bar dip
\n - tremolo bar dive
-/n - tremolo bar Release up
/n\ - tremolo bar inverted dip
/n - tremolo bar return
-\n - tremolo bar Release down
S - shift slide
s - legato slide
/ -  slide into from below or out of upwards
\ -  slide into from above or out of downwards
~ - vibrato
W - wide vibrato
tr - trill
TP - tremolo picking
T - tapping
S - slap
P - pop
< - fade in
^ - brush up
v - brush down
Login or Register to remove this ad.

2 comments on Memories

thanks mister

thanks mister

OMG!

5

That has got to be one of the beautiful songs I've ever played.