Ads

The Farthest Land (Shadow of the Colossus) Guitar Tab

Submitted: Aug 15, 2009 by natenmn (Last updated: Sep 06, 2009)

5
Average: 5 (6 votes)
Download | Listen
Game: Shadow of the Colossus
Composer(s): Kow Otani
Style: Arrangement, Fingerstyle

AutoScroll: Slow | Medium | Fast
               The Farthest Land - Shadow of the Colossus
                             Koh Otani 
                    (Arranged by Nathan Nordstrom)


Tab: Nathan Nordstrom
(Based on XaldBalghostriped's piano arrangement)
8/15/2009                                                              


                                                                       
Classical Guitar 1


    6/8 60bpm

     E  E  E  E  E  E     E  E  E  E  E  E     E  E  E  E  E  E   
E||--------------------|--------------------|--------------------|
B||-----------------3--|-----------------3--|-----------------3--|
G||--------------4-----|--------------4-----|--------------4-----|
D||--------0--4--------|--------0--4--------|--------0--4--------|
A||-----2--------------|-----2--------------|-----2--------------|
E||--0-----------------|--3-----------------|--0-----------------|


  E  E  E  E  E.  S    E  S S S S E  E  E     E  S S E  E  E  E   
--------------------|-------0-2-3-2--0-----|--0------------------|
--------------------|--0----------------3--|-------3----0--------|
--------------------|----------------------|---------2-----------|
--------2-----------|---------0---------0--|---------0--------0--|
--0--3--------3-----|-----2----------2-----|-----2---------2-----|
--0--------3------2-|--0----------2--------|--3---------2--------|


  E  S S E  E  E  E     E  S S E  E  E  E     E  S S S S E  E  E   
---------------------|--0------------------|-------0-2-3-2--0-----|
--1----0----0--------|-------3-1--0--------|--0----------------3--|
---------2-----------|--2---------------2--|----------------------|
---------0--------0--|---------2-----------|---------0---------0--|
-----2---------2-----|-----3---------3-----|-----2----------2-----|
--0---------2--------|--0---------3-----2--|--0----------2--------|


  E  S S E  E  E  E     E  S S E  E  E  E     E  S S E  E  E  E   
--5----3-2--0--------|--2----0----0--------|---------------0--2--|
---------------------|---------3-----------|-------0-1--3--------|
---------------------|---------------------|--2------------------|
---------0--------0--|---------0--------0--|---------0--------0--|
-----2---------2-----|-----2---------2-----|-----2---------2-----|
--3---------2--------|--0---------2--------|--0---------2--------|


  ^                    ^                    ^                  
  E  E  E  E  E  E     E  E  E  E  E  E     E  E  E  E  E  E   
--3--------3-----5--|--7-----5--3-----2--|--0--------0-----1--|
--5-----3-----------|--5-----------------|--------3-----------|
-----------------0--|--------------------|--2-----------------|
-----0--------0-----|-----0--4-----0--4--|--------3--------3--|
--------0-----------|--------------------|--0--3--------3-----|
--0--------0--------|--0--------2--------|-----------1--------|


  ^                                                            
  E  E  E  E  E  E     E  E  E  E  E  E     E  E  E  E  E  E   
--3-----1--0--------|--------------------|--------------------|
--1--------------3--|--1--------1-----3--|--4-----3--1--------|
-----------2--------|--------3-----------|-----------------3--|
-----------------2--|--------1--------1--|--------0--------0--|
-----3--------3-----|-----1--------1-----|-----1--------1-----|
--0--------0--------|--3-----------------|--3-----------------|


  E  E  E  E  E  E     E  E  E  E  E  E     E  E  E  E  E  E   
--------------------|--------------------|--------------------|
--3-----------------|--------------------|--------------------|
--------------------|--2--------0--------|--2-----------------|
--------0--------2--|--------0--------0--|-----------------0--|
-----0--------0-----|-----0--------0-----|-----0--4-----0-----|
--1--------1--------|--0--------0--------|--0--------0--------|


  E  E  E  E  E  E     E  S S E  E  S S E     E  E  E  E  S S S S  
--------------0--3--|--5----5-5--5--0------|-----------0----------|
--------------------|--6----6-6--6--8---6--|--5-----6--8----------|
-----------2--------|-------------------7--|--5-----7-------------|
-----2--0-----------|---------0-------0----|--------0-------0-2-3-|
-----------4--------|-----0---------0------|-----0--------0-------|
--0-----------------|----------------------|----------------------|


  E  S S E  E  E  S S    E  E  E  E  E  E     E  S S E  E  S S E   
-----1-1-1--1--0------|-----------0--------|--5----5-5--5--0------|
-----3-3-3--3--1--3---|--1-----3--1--------|--6----6-6--6--8---6--|
------------3-----3---|--2-----3-----------|-------------------7--|
----------------------|--3-----------------|---------0-------0----|
---------1--------3-5-|--------------------|-----0---------0------|
-----1---------1------|-----0--1-----0--1--|----------------------|


  ^                       ^                                         
  E  E  E  E  S S S S     E  E  E  E  E  E     E  S S E  E  E  S S  
--------1--3------5---|---8--------7--------|------------3-----5-7-|
--5-----3--5------6---|--10--------8--------|------------3---------|
--5-----3---------7---|--10-----------------|--7------0------------|
--7-------------------|---------------------|--0--7----------------|
-----0----------5---8-|---------0-----------|---------0------------|
--------------5-------|------0-----7--8--7--|-------7----3--1--0---|


   E  E   E  E  E  E     E.  S E  S S S S S S    E  S S E  E  S S E   
---8-----10--7--------|-------------------1-3-|--5----5-5--5--0------|
--10-----12--8--------|-----------------------|--6----6-6--6--8---6--|
-------------0--------|-----------------------|-------------------7--|
----------------------|--0-----0--2-0---------|---------0-------0----|
----------0-----3--2--|------3--------3-2-0---|-----0---------0------|
------0---------------|---------------------3-|----------------------|


  E  E  E  E  S S S S    E  S S E  E  S S E     E  E  E  E  S S S S  
-----------0----------|-----1-1-1--1--0------|----------------------|
--5-----6--8----------|-----3-3-3--3--1---3--|--1-------------------|
--5-----7-------------|------------3------3--|--2--------3----------|
--------0-------0-2-3-|-------------------0--|--------------------0-|
-----0--------0-------|---------1-------3----|----------------1-3---|
----------------------|-----1---------1------|-----0--1--1--1-------|


  E  S S E  E  E  E     E  E  E  E  E  S S    E  E  E  E  E  S  S  
---------------------|---------------------|-----------------8-10-|
-----1-1-1--1-----1--|-----------1-------1-|--3-------------------|
-----2-2-2--2-----2--|--2--------2-----2---|--4-----------0-------|
---------------------|--3------------------|-----------0-----0----|
---------------------|-----0--3------------|-----2----------------|
-----0---0-----0-----|--------1-----1------|--------3-------------|


                        ^                                  
   E  E  E  E  E  E     Q    E  Q    E     Q.     Q    E   
--12--------------0--|--5----3-------0--|-----------------|
--14-----------------|--2-------6-------|--3------2-------|
---------------------|--4---------------|-----------------|
---------7-----7-----|------------------|--0--------------|
---0--7--------------|----------4-------|---------4-------|
------------0--------|------------------|--------------2--|


  E  S S S S E  E  E     E  S S E  E  E  E     E  S S E  E  E  E   
-------0-2-3-2--0-----|--0------------------|---------------------|
--0----------------3--|-------3----0--------|--1----0----0--------|
----------------------|---------2-----------|---------2-----------|
---------0---------0--|---------0--------0--|---------0--------0--|
-----2----------2-----|-----2---------2-----|-----2---------2-----|
--0----------2--------|--3---------2--------|--0---------2--------|


  ^                                                                
  E  S S E  E  E  E     E  S S S S E  E  E     E  S S E  E  E  E   
--0------------------|-------0-2-3-2--0-----|--5----3-2--0--------|
-------3-1--0--------|--0----------------3--|---------------------|
--2---------------2--|----------------------|---------------------|
---------2-----------|---------0---------0--|---------0--------0--|
-----3---------3-----|-----2----------2-----|-----2---------2-----|
--0---------3-----2--|--0----------2--------|--3---------2--------|


                        ^                                         
  E  S S E  E  E  E     E  S S E  E  E  S S    E  E  E  E  E  E   
--2----0----0--------|------------------2---|--3-----5--7--5--3--|
---------3-----------|-------0-1--3--5------|--------------------|
---------------------|--2-------------------|-----------0--------|
---------0--------0--|---------2--------2-4-|--------0-----------|
-----2---------2-----|--0--3---------3------|-----2--------2-----|
--0---------2--------|--0---------3--3------|--3--------------3--|


  ^                    ^                    ^                    
  E  E  E  E  E  E     E  E  E  E  E  E     E  S S S S E  E  E   
--------------------|--------5--3--------|----------------------|
--3--------0--------|--3-----5--------3--|--0------1---3--------|
--4--------0-----5--|--2--------------2--|----------------------|
-----0--4--0--------|--------0-----------|---------0-2-0--------|
--------------2--3--|-----2--------2--0--|--2--2-3--------3--2--|
--2--------------5--|--3--------3--------|--0-------------------|


                       ^                                         
  E  E  E  E  E  E     E  E  E  E  E  E     E  S S S S E  E  E   
--3-----5--7--5--3--|--------------------|---------5---3--------|
--------------------|--3--------0-----1--|--3----------------3--|
--------------------|--4-----------------|--2--------2----------|
--------0--4-----0--|--------0--------0--|-------0-2---------0--|
-----2--------2-----|-----2--------2-----|-----2----------2-----|
--0-----------------|--3--------2--------|--0----------2--------|


                                                ^                    
  E  S S S S E  E  E     E  S S S S E  E  E     E  E  E  E  S S S S  
----------------------|----------------------|----------------------|
--0------1---3--------|--1----0-----0--------|--------3--0----------|
----------------------|---------2-0----------|--2-------------------|
-------0-2-0----0-----|---------0---------0--|--2-----0-------------|
-----2-------------2--|-----2----------2-----|-----0--------3-2-0---|
--3----------2--------|--0----------2--------|--0--------2--------3-|


                         ^                                     
  E  S S S S E  E  E     E  E  E  E  E  E     E  E  E  Q.      
----------------------|--------------------|--0---------------|
--1----0-----0--------|--------3--0-----3--|------------------|
---------2-0----------|--2--------------2--|------------------|
---------0---------0--|--4-----0--------0--|--------0---------|
-----2----------2-----|-----0--------2-----|-----2------------|
--0----------2--------|--3--------2--------|--0--------2------|


 Slow Tempo--------------------------------------------

                              ^          ^                               
  E  E  E  Q.        E  E  E  Q.         H        Q       H.             
------------------|------------------|--14-------------|--L------------||
------------------|-----------7------|--15-------------|--L------------||
------------------|-----------9------|--14-------------|--L------------||
--------0---------|-----------7------|--12-------------|--L------------||
-----2------------|--------7--9------|-----------------|---------------||
--3--------2------|--0--7-----7------|------------0----|---------------||




Duration Legend
---------------
W - whole
H - half
Q - quarter
E - 8th
S - 16th
T - 32nd
X - 64th
. - note dotted
|-n-|  - n-tuplets


Tablature Legend
----------------
L - tied note
x - dead note
g - grace note
(n) - ghost note
> - accentuded note
NH - natural harmonic
AH - artificial harmonic
TH - tapped harmonic
SH - semi harmonic
PH - pitch harmonic
h - hammer on
p - pull off
b - bend
br - bendRelease
pb - preBend
pbr - preBendRelease
brb - bendReleaseBend
\n/ - tremolo bar dip
\n - tremolo bar dive
-/n - tremolo bar Release up
/n\ - tremolo bar inverted dip
/n - tremolo bar return
-\n - tremolo bar Release down
S - shift slide
s - legato slide
/ -  slide into from below or out of upwards
\ -  slide into from above or out of downwards
~ - vibrato
W - wide vibrato
tr - trill
TP - tremolo picking
T - tapping
S - slap
P - pop
< - fade in
^ - brush up
v - brush down
Login or Register to remove this ad.

4 comments on The Farthest Land

I just updated this to make

I just updated this to make it a bit more playable. It's not really a hard tab, but due to constant fingering switching, a few parts were a bit awkward. Hopefully I was able to iron them out a bit. :)

Thanx

5

Thanx dood i can get the song down faster.

oh man this sounds nice, but

5

oh man this sounds nice, but im having some issues with the fingerings do you by any chance have a fingering chart for this?

the sounds heal me

5

superb tab with a bpm of 60 allowing one to remove the focus of playing and instead reflect upon sins