Adios (Shadow Hearts: From The New World) Guitar Tab

Submitted: Jun 27, 2018 by Coolbreeze

5
Average: 5 (2 votes)
Download | Listen
Game: Shadow Hearts: From The New World
Composer(s): Yoshitaka Hirota
Style: Arrangement, Fingerstyle
Series: Shadow Hearts

AutoScroll: Slow | Medium | Fast
			Adios (Mariachi)
		~Shadow Hearts from the New World~

Music by Yoshitaka Hirota	
Tabbed by Coolbreeze
Tempo = 90


     E  E  E  E  E  E     E  E  E  E  Q       E  E  E  E  E  E   
E||--------------------|--2--------2-------|--------------------|
B||-----------0-----0--|--------0-----0----|-----------0-----0--|
G||--------2-----2-----|-----2-------------|--------2-----2-----|
D||-----4--------------|-------------------|-----2--------------|
A||--------------------|-------------------|--------------------|
E||--3-----------------|-------------------|--2-----------------|


  ^                                                                           
  H.              E  E  E  E  E  E     E  E  E  E  Q       E  E  E  E  E  E   
--0------------|--------------------|--2--------2-------|--------------------|
--0------------|-----------0-----0--|--------0-----0----|-----------7-----7--|
--2------------|--------2-----2-----|-----2-------------|--------7-----7-----|
--2------------|-----4--------------|-------------------|-----7--------------|
--0------------|--------------------|-------------------|--------------------|
---------------|--3-----------------|-------------------|--7-----------------|


   ^                                    ^                                  
   H.              E  E  E  E  E  E     H.              E  E  E  E  E  E   
----------------|--------------------|--2------------|-----------9-----5--|
--10------------|-----------3-----3--|--3------------|--------7-----7-----|
---7------------|--------4-----4-----|--4------------|-----7--------------|
---7------------|-----5--------------|--5------------|--------------------|
----------------|--------------------|---------------|--5-----------------|
---7------------|--0-----------------|---------------|--------------------|


  ^                                    ^               ^                  
  H.              E  E  E  E  E  E     H.              E  E  E  E  E  E   
--9------------|--------------------|--3------------|--2--------------0--|
--7------------|-----------5-----5--|--5------------|-----------2--3-----|
--7------------|--------3-----3-----|--3------------|--------3-----------|
---------------|-----5--------------|--5------------|-----2--------------|
--5------------|--4-----------------|--4------------|--------------------|
---------------|--------------------|---------------|--2-----------------|


  ^                               ^                                   
  H.              H.              Q    E  E  E  E     E  E  H         
--2------------|---------------|----------------0--|--------0--------|
--3------------|--3------------|--2----------2-----|--2--------------|
--3------------|---------------|----------3--------|-----3-----------|
--2------------|---------------|-------0-----------|-----------------|
--3------------|---------------|--0----------------|-----------------|
---------------|---------------|-------------------|-----------------|


  ^                                                                
  H.              H.              S S S S S S S S S S S S S S. S.  
---------------|---------------|--------0-------0-1-----1---3--1--|
--0------------|--L------------|------0---0---0-----0-1---1-3--1--|
--2------------|--L------------|----------------------------------|
--0------------|--L------------|----2-------2-----3---------5--3--|
--2------------|--L------------|----------------------------------|
---------------|---------------|--0-------------------------------|


                                     ^                             
  S S S S S S S S S S S S S S. S.    H.              H.            
--0-----0-------0-1-----1---3--1--|--0------------|--L------------|
--0---0---0---0-----0-1---1-3--1--|--0------------|--L------------|
----------------------------------|--0------------|--L------------|
----2-------2-----3---------5--3--|--2------------|--L------------|
----------------------------------|---------------|---------------|
--0-------------------------------|--0------------|--L------------|


                              ^                           
  E  E  E  E  E  S S S E.     Q    S S E  S S E  S S S S  
-----2--0-----2--0---------|---------------------------0-|
--3--3--3--3--3--3-3---0---|--2----0------0------0-2-3---|
--4--4--4--4--4----4---0---|--2----2---2--2---2--2-------|
---------------------------|--0--------0------0----------|
---------------------------|--------------0--------------|
--3-----3-----3------3-----|--2------2------2------------|


                          PM                            PM  
  E  S S S E  S S E  S E  E      E.  S S E  S S E  S E  E   
--2----0---0---------0-------|-----------------------------|
--3--3-3---3--3---3--3----3--|--10---7---7--7---7--7----7--|
--4--4--------4---4-------4--|---7---7---7--7---7--7----7--|
-----------------------------|---7---7---7--7---7--7----7--|
-----------------------------|-----------------------------|
--3------3------3------3-----|---7-----7------7------7-----|


  E.  S S E  S E  E  S E.     E.  E.  E.  E.  E  E     E  E  S E.  E  E  S E.   
--7---5---7--5----7----5---|--2---0-----------------|--------------3--3----3---|
--5---5---5--5----5----5---|--2---0---3---2---3-----|--5--5----5---5--5----5---|
--7---7---7--7----6----6---|----------4---4---4-----|--3--3----3---3--3----3---|
---------------------------|--4---2---4---4---4-----|--5--5----5---------------|
---------------0-----0-----|---------------------0--|--------4-----------4-----|
--0-----0------------------|------------------------|--------------------------|


             ^               ^                         
  E.  E.  E  E.  E.  S  S    E  E  E  E  E  S S S E.   
--2---3---2---------------|-----2--0-----2--0---------|
------2------5---3---2p-0-|--3--3--3--3--3--3-3---0---|
--3---3---3--3------------|--4--4--4--4--4----4---0---|
--4-------4--5------------|---------------------------|
-------------3------------|---------------------------|
--------------------------|--3-----3-----3------3-----|


  ^                                                     PM  
  Q    S S E  S S E  S S S S    E  S S S E  S S E  S E  E   
---------------------------0-|--2----0---0---------0-------|
--2----0------0------0-2-3---|--3--3-3---3--3---3--3----3--|
--2----2---2--2---2--2-------|--4--4--------4---4-------4--|
--0--------0------0----------|-----------------------------|
--------------0--------------|-----------------------------|
--2------2------2------------|--3------3------3------3-----|


                          PM                                  
   E.  S S E  S S E  S E  E     S E  S E  S E  S E  T  S. E   
-----------------------------|--7-7--5-5--7-7--5-5--1s-2--5--|
--10---7---7--7---7--7----7--|--0-5--5-5--5-5--5-5--1s-2--5--|
---7---7---7--7---7--7----7--|--7-7--7-7--7-7--7-7-----------|
---7---7---7--7---7--7----7--|-------------------------------|
-----------------------------|----------------------0--------|
---7-----7------7------7-----|--0---------0------------------|


  S S S S E  S E  S E  Q       E  E  S E.  E  E  S E.   
--2-2-2-0-0-----------------|--------------3--3----3---|
--2-2-2-0-0--3-3--2-2--3----|--5--5----5---5--5----5---|
-------------4-4--4-4--4----|--3--3----3---3--3----3---|
--4-4-4-2-2--4-4--4-4--4----|--5--5----5---------------|
----------------------------|--------4-----------4-----|
----------------------------|--------------------------|


             ^                                  
  E.  E.  E  E.  E.  S  S    W                  
--2---3---2---------------|-------------------||
------2------5---3---2p-0-|--L----------------||
--3---3---3--3------------|-------------------||
--4-------4--5------------|-------------------||
-------------3------------|-------------------||
--------------------------|-------------------||
Login or Register to remove this ad.