Kallen (Shadow Hearts: Covenant) Guitar Tab

Submitted: Aug 19, 2016 by Coolbreeze

5
Average: 5 (1 vote)
Download | Listen
Game: Shadow Hearts: Covenant
Composer(s): Yasunori Mitsuda, Yoshitaka Hirota
Style: 2 or more instruments, Transcription

AutoScroll: Slow | Medium | Fast
			          Kallen
			~Shadow Hearts: Covenant~

Music by Yoshitaka Hirota
Tabbed by Coolbreeze
Tempo = 63


Guitar 1

     Q.     Q.     E  E     Q.      E  H           H        Q    Q     
E||--9-------------6--7--|--9------11--9--------|-----------6----9----|
B||----------------------|----------------------|---------------------|
G||----------------------|----------------------|---------------------|
D||----------------------|----------------------|---------------------|
A||----------------------|----------------------|---------------------|
E||----------------------|----------------------|---------------------|


                               ^                                              
  E  Q    E  H           Q     Q     E  E   E   E     Q    E   E   Q    Q     
--6-------7--6--------|-------11----11--9--11--13--|--9-------13--14---------|
----------------------|-------12---------------12--|-------------------------|
----------------------|----------------------------|-------------------------|
----------------------|----------------------------|-------------------------|
----------------------|----------------------------|-------------------------|
----------------------|----------------------------|-------------------------|


             |-----3----|                                                 
   H         Q    Q     Q       Q    H.              Q.     Q.     E  E   
------------------9----11----|--9-----------------|--9-------------6--7--|
--12--------12---------------|--------------------|----------------------|
-----------------------------|--------------------|----------------------|
-----------------------------|--------------------|----------------------|
-----------------------------|--------------------|----------------------|
-----------------------------|--------------------|----------------------|


  Q.      E  H           H        E  E  E   E      Q    E   E  H         
--9------11--9--------|-----------6--7--9--11--|--13-------11--9--------|
----------------------|------------------------|------------------------|
----------------------|------------------------|------------------------|
----------------------|------------------------|------------------------|
----------------------|------------------------|------------------------|
----------------------|------------------------|------------------------|


        ^                                                   
                                     |---3---|              
  Q     Q     E  E   E   E      Q    E   E   E   Q    Q     
-------11----11--9--11--13--|---9----9--11--13--14---------|
-------12-------------------|--11--------------------------|
----------------------------|------------------------------|
----------------------------|------------------------------|
----------------------------|------------------------------|
----------------------------|------------------------------|


                  |---3---|                         
   H        Q     E   E   E      Q    H.            
--14-------------13--14--16--|--14-----------------|
-----------------------------|---------------------|
-----------------------------|---------------------|
-----------------------------|---------------------|
-----------------------------|---------------------|
-----------------------------|---------------------|


   E   E   Q     E   E   Q        E   E   E   E   H         
--14--13--14----16--14--13----|--13------13--14--11--------|
--12------12----14------14----|------11--------------------|
------------------------------|----------------------------|
------------------------------|----------------------------|
------------------------------|----------------------------|
------------------------------|----------------------------|


   E   E   Q     E   E   E   E      Q     Q     Q     Q     
--14--13--14----16--14--13--14--|--13----13----14----14----|
--12------12----14------14------|--14----14----14----14----|
--------------------------------|--------------------------|
--------------------------------|--------------------------|
--------------------------------|--------------------------|
--------------------------------|--------------------------|


  E  Q.     E  Q.         H         Q     Q       H.           E  E   
----------------------|--11--------13----14----|---------------------|
-----6---------7------|------------------------|---------------6--7--|
----------------------|------------------------|---------------------|
----------------------|------------------------|---------------------|
----------------------|------------------------|---------------------|
----------------------|------------------------|---------------------|


                       ^                                              
  W                    Q    Q.      E  Q        Q    Q.      E  Q     
-------------------|-------------------9----|-------------------9----|
-------------------|--11-----------12-------|--11-----------12-------|
-------------------|--11--------------------|--10--------------------|
-------------------|------------------------|------------------------|
-------------------|------------------------|------------------------|
-------------------|------------------------|------------------------|


   ^                       ^                                                 
   Q    Q.      E  Q       Q    Q    Q    Q        Q     Q     E   E   Q     
---9---------------9----|--6----9----7----6----|--11----14----16--14--13----|
--11-----------12-------|--6-------------------|--12------------------------|
------------------------|----------------------|----------------------------|
------------------------|----------------------|----------------------------|
------------------------|----------------------|----------------------------|
------------------------|----------------------|----------------------------|


   Q     Q     Q     Q        W                    H         H         
--18----16----14----13----|--11----------------|--14--------16--------|
--19----------------------|--------------------|----------------------|
--------------------------|--------------------|----------------------|
--------------------------|--------------------|----------------------|
--------------------------|--------------------|----------------------|
--------------------------|--------------------|----------------------|


   H         E   E   E   E      Q     Q     H         
--13--------14------11--14--|--13----16----14--------|
--14------------12----------|--14----------14--------|
----------------------------|------------------------|
----------------------------|------------------------|
----------------------------|------------------------|
----------------------------|------------------------|


   ^     ^     ^                                   
   Q     Q     Q     E   E      W                  
---9-----9----10--------10--|---9----------------||
--11----11----12----12------|--11----------------||
----------------------------|--------------------||
----------------------------|--------------------||
----------------------------|--------------------||
----------------------------|--------------------||




Guitar 2

     E  E  E  E  H           E  E  H        Q       E  E  E  E  H         
E||-----------------------|--1-------------------|--2--------2-----------|
B||--2-----------2--------|----------------------|--------4--------------|
G||-----------3-----------|--------3-------------|-----3-----------------|
D||--4-----4--------------|-----3-----------3----|--1--------------------|
A||-----4-----------------|--1-------------------|-----------------------|
E||--2--------------------|----------------------|-----------------------|


                                                         ^           ^     
  E  E  Q.     E  E  E     E  E  E  E  H           E  E  E  E  E  E  Q     
------------------1-----|--2--------------------|--1-----------2-----2----|
--2-----2---------2-----|--4--------------------|--------2-----4-----4----|
------------------------|--4--------------------|--------3--------3-------|
-----3---------3-----3--|-----4-----4--L--------|-----3-----3--1----------|
--1---------------------|--2--------------------|--1----------------------|
------------------------|-----------------------|-------------------------|


  E  E  E  E  H           E  E  E  E  H           E  E  E  E  H         
-----------------------|-----------------------|-----------------------|
-----------------------|--7--------7--6--------|--2-----------2--------|
--4-----4--------------|--------6--------------|-----------3-----------|
-----------------------|-----6--------6--------|--4-----4--------------|
-----6-----6--L--------|--4--------------------|-----4-----------------|
--4--------------------|-----------------------|--2--------------------|


  E  E  H        Q       E  E  E  E  H           E  E  Q.     E  Q     
--1-------------------|--2--------2-----------|--1---------------1----|
----------------------|--------4--------------|------------------2----|
--------3-------------|-----3-----------------|--------3--------------|
-----3-----------3----|--1--------------------|-----3---------3-------|
--1-------------------|-----------------------|--1--------------------|
----------------------|-----------------------|-----------------------|


                                            ^                             
  E  E  E  E  H           E  E  E  E  E  E  Q       E  E  E  E  H         
--2--------------------|--1-----------2-----2----|-----------------------|
--4--------------------|--------2-----4-----4----|-----------4--7--------|
--4-----------4--------|--------3--------3-------|--4-----4--------------|
-----4-----4-----------|-----3-----3--1----------|-----------------------|
--2--------------------|--1----------------------|-----6-----------------|
-----------------------|-------------------------|--4--------------------|


  E  E  E  E  H           Q    Q    Q    Q       Q    Q    Q    Q     
-----------------------|--2----2----4---------|--4---------2----2----|
--7--------7--6--------|------------6----6----|--4----4----4---------|
--------6--------------|--4----4----6---------|----------------------|
-----6--------6--------|----------------------|----------------------|
--4--------------------|--2---------4---------|----------------------|
-----------------------|----------------------|----------------------|


  Q    Q    E  E  Q       Q    Q    Q    Q       Q    Q    Q    Q     
--2----2---------------|----------------------|-------2----4----4----|
------------2--2--2----|--7----7----7----7----|-------4---------6----|
--4----4----3----------|--8---------6---------|--4----4----6---------|
-----------------------|----------------------|----------------------|
--2---------1----------|----------------------|--2---------4---------|
-----------------------|----------------------|----------------------|


   Q    Q    Q    Q       W                   W                 
-----------------------|-------------------|-------------------|
--11----9----7----6----|-------------------|-------------------|
-----------------------|--4----------------|--6----------------|
-----------------------|-------------------|--6----------------|
---9----8----6----4----|-------------------|--4----------------|
-----------------------|--4----------------|-------------------|


  Q    Q    H           Q    Q    H           Q    Q    H         
--2------------------|--1------------------|--2------------------|
-------2-------------|-------2-------------|---------------------|
---------------------|---------------------|-------3-------------|
--4------------------|--3------------------|--1------------------|
---------------------|---------------------|---------------------|
---------------------|---------------------|---------------------|


  E  E  Q    H           H        H           Q    Q    Q    Q     
--4-------------------|--2--------1--------|--9----9----6----4----|
----------------------|-----------2--------|----------------------|
--------3-------------|--4-----------------|----------------------|
-----3----------------|--------------------|----------------------|
--4-------------------|--2--------1--------|--9----8----6----4----|
----------------------|--------------------|----------------------|


  W                   W                   W                 
--2----------------|--4----------------|--2----------------|
-------------------|-------------------|-------------------|
-------------------|-------------------|-------------------|
-------------------|-------------------|--4----------------|
--2----------------|--4----------------|-------------------|
-------------------|-------------------|-------------------|


  E  Q.     H           E  Q.     E  Q    E     W                  
-----4---------------|--2--2---------2-------|--2----------------||
---------------------|-----------------------|-------------------||
---------------------|-----------------------|-------------------||
---------------------|--4--------------------|--4----------------||
---------------------|-----------------------|-------------------||
---------------------|-----------------------|-------------------||
Login or Register to remove this ad.

3 comments on Kallen

Sounds awesome! I think

Sounds awesome!

I think guitar 2 could use a capo on fret 1

this tab

Absolutely beautiful. I can not stop playing it its just so enchanting.

I would pay money

I would pay good money to see somebody tab out getsurenka, Not that I do not like this tab. You did an awesome job on this one. I jus5t really love the music in this game.