Ads

Corridor of Death (Serious Sam: The Second Encounter) Guitar Tab

Submitted: Aug 13, 2016 by Matatiahu (Last updated: Jun 19, 2018)

4.75
Average: 4.8 (4 votes)
Download | Listen
Game: Serious Sam: The Second Encounter
Composer(s): Damjan Mravunac
Style: Arrangement, Fingerstyle, Natural harmonics

Click here for a video example.

AutoScroll: Slow | Medium | Fast
Corridor of Death
Serious Sam: The Second Encounter
Damjan Mravunac

Tune: standard

E||<>12------------------------------|<>12------------------------------|
B||<>12------------------------------|<>12------------------------------|
G||----------------------------------|----------------------------------|
D||----------------------------------|----------------------------------|
A||----------------------------------|----------------------------------|
E||--0-------------------------------|--0-------------------------------|

--0-------------------------------|----------------------------------|
--0---------------0---------------|----------------------------------|
----------7---5-----------2p0-----|--------------0-------------------|
------------------------------4---|--2-------4-------4-------0-------|
----------------------------------|--3---------------5---------------|
--0-------------------------------|--3---------------5---------------|

--0-------------------------------|----------------------------------|
--0---------------0---------------|----------------------------------|
----------7---5-----------2p0-----|--------------0---2---------------|
------------------------------4---|--2-------4-------0-------4-------|
----------------------------------|--3---------------0---------------|
--0-------------------------------|--3-------------------------------|

----------------------------------|--------------------------0-------|
----------------------------------|--0---------------1---------------|
--0---------------2-----------0p2-|--0-------2---0---2---------------|
--2-------------0-0---------------|----------------------2-------2p4-|
--------------4---0---------------|------------------0---------------|
--0-------------------------------|--3-------------------------------|

----------------------------------|
----------------------------------|
--0-------2---0-------------------|
--2---------------4-------2---0---|
--3---------------5---------------|
------------------5---------------|

----------------------------------|----------------------------------|
----------------------------------|----------------------------------|
----------------------------------|----------------------------------|
----------------------------------|----------------------------------|
----------------------------------|----------------------------------|
--0-------0-0-0---0-------0---0---|--0-------0-0-0---0-------0---0---|

----------------------------------|----------------------------------|
--0-------------------------------|--1-----------------------3-------|
--0-------------------------------|--0-----------------------0-------|
----------------------------------|----------------------------------|
----------------------------------|----------------------------------|
--0-------0-0-0---0-------0---0---|--0-------0-0-0---0-------0---0---|

-------<>12----<>12----<>12-------|-------<>12----<>12----<>12-------|
-------<>12----<>12----<>12-------|-------<>12----<>12----<>12-------|
----------------------------------|----------------------------------|
----------------------------------|----------------------------------|
----------------------------------|----------------------------------|
--0-------0-0-0---0-------0---0---|--0-------0-0-0---0-------0---0---|

----------------------------------|----------------------------------|
--0-------------------------------|--1-----------------------3-------|
--0-------------------------------|--0-----------------------0-------|
----------------------------------|----------------------------------|
----------------------------------|----------------------------------|
--0-------0-0-0---0-------0---0---|--0-------0-0-0---0-------0---0---|

-------<>12----<>12----<>12-------|-------<>12----<>12----<>12-------|
-------<>12----<>12----<>12-------|-------<>12----<>12----<>12-------|
----------------------------------|----------------------------------|
----------------------------------|----------------------------------|
----------------------------------|----------------------------------|
--0-------0-0-0---0-------0---0---|--0-------0-0-0---0-------0---0---|

--0-------------------------------|----------------------------------|
--0---------------0---------------|----------------------------------|
----------7---5-----------2p0-----|--------------0-------------------|
------------------------------4---|--2-------4-------4-------0-------|
----------------------------------|--3---------------5---------------|
--0-------0-------0-------0-------|--3-------3-------5-------5-------|

--0-------------------------------|----------------------------------|
--0---------------0---------------|----------------------------------|
----------7---5-----------2p0-----|--------------0---2---------------|
------------------------------4---|--2-------4-------0-------4-------|
----------------------------------|--3---------------0-------0-------|
--0-------0-------0-------0-------|--3-------3-----------------------|

----------------------------------|--------------------------0-------|
----------------------------------|--0---------------1---------------|
--0---------------2-----------0p2-|--0-------2---0---2---------------|
--2-------------0-0---------------|----------------------2-------2p4-|
--------------4---0-------0-------|------------------0-------0-------|
--0-------0-----------------------|--3-------3-----------------------|

----------------------------------|
----------------------------------|
--0-------2---0-------------------|
--2---------------4-------2---0---|
--3-------3-------5---------------|
------------------5-------5-------|

----------------------------------|----------------------------------|
----------------------------------|----------------------------------|
----------------------------------|----------------------------------|
----------------------------------|----------------------------------|
----------------------------------|----------------------------------|
--0-------0-0-0---0-------0---0---|--0-------0-0-0---0-------0---0---|

--3-------------------------------|--2-----------------------5-------|
--5-------------------------------|--3-----------------------7-------|
----------------------------------|----------------------------------|
----------------------------------|----------------------------------|
----------------------------------|----------------------------------|
--0-------0-0-0---0-------0---0---|--0-------0-0-0---0-------0---0---|

--7-------------------------------|--5-----------------------8-------|
--8-------------------------------|--7----------------------10-------|
----------------------------------|----------------------------------|
----------------------------------|----------------------------------|
----------------------------------|----------------------------------|
--0-------0-0-0---0-------0---0---|--0-------0-0-0---0-------0---0---|

--3-------------------------------|--2-----------------------0-------|
--5-------------------------------|--3-----------------------1-------|
----------------------------------|----------------------------------|
----------------------------------|----------------------------------|
--3-------3-3-3---3-------3---3---|--3-------3-3-3---3-------3---3---|
----------------------------------|----------------------------------|

--2-------------------------------|--3-----------------------2-------|
--3-------------------------------|--3-----------------------3-------|
----------------------------------|----------------------------------|
----------------------------------|----------------------------------|
--2-------2-2-2----2------2---2---|--2-------2-2-2----2------2---2---|
----------------------------------|----------------------------------|

--3-------------------------------|--2-----------------------5-------|
--5-------------------------------|--3-----------------------7-------|
----------------------------------|----------------------------------|
----------------------------------|----------------------------------|
----------------------------------|----------------------------------|
--0-------0-0-0---0-------0---0---|--0-------0-0-0---0-------0---0---|

--7-------------------------------|--5-----------------------8-------|
--8-------------------------------|--7----------------------10-------|
----------------------------------|----------------------------------|
----------------------------------|----------------------------------|
----------------------------------|----------------------------------|
--0-------0-0-0---0-------0---0---|--0-------0-0-0---0-------0---0---|

--3-------------------------------|--2-----------------------0-------|
--5-------------------------------|--3-----------------------1-------|
----------------------------------|----------------------------------|
----------------------------------|----------------------------------|
--3-------3-3-3---3-------3---3---|--3-------3-3-3---3-------3---3---|
----------------------------------|----------------------------------|

--2-------------------------------|--3----------------5------2-------|
--3-------------------------------|--3----------------3------3-------|
----------------------------------|----------------------------------|
--0-------0-0-0----0------0---0---|--0-------0-0-0----0------0-------|
----------------------------------|----------------------------------|
----------------------------------|----------------------------------|

--3p2p0---------------------------|----------------------------------|
------------------1p0-------------|----------------------------------|
----------------------2-----------|----------------------------------|
----------------------------------|--5p4p2---------------------------|
----------------------------------|----------------------------------|
--0-------0-------0-------0-------|--0-------0-------0-------0---0---|

--0-------------------------------|----------------------------------|
--0---------------0---------------|----------------------------------|
----------7---5-----------2p0-----|--------------0-------------------|
------------------------------4---|--2-------4-------4-------0-------|
----------------------------------|--3---------------5---------------|
--0-------------------------------|--3-------3-------5-------5-------|

--0-------------------------------|----------------------------------|
--0---------------0---------------|----------------------------------|
----------7---5-----------2p0-----|--------------0---2---------------|
------------------------------4---|--2-------4-------0-------4-------|
----------------------------------|--3---------------0-------0-------|
--0-------0-------0-------0-------|--3-------3-----------------------|

----------------------------------|--------------------------0-------|
----------------------------------|--0---------------1---------------|
--0---------------2-----------0p2-|--0-------2---0---2---------------|
--2-------------0-0---------------|----------------------2-------2p4-|
--------------4---0-------0-------|------------------0-------0-------|
--0-------0-----------------------|--3-------3-----------------------|

----------------------------------|----------------------------------|
----------------------------------|----------------------------------|
--0-------2---0-------------------|----------------------------------|
--2---------------4-------2---0---|--2-------------------------------|
--3-------0-------5---------------|--2-------------------------------|
------------------5---------------|--0-------------------------------|
Login or Register to remove this ad.

2 comments on Corridor of Death

Flashbacks of 5 trillion

5

Flashbacks of 5 trillion enemies on a open field

Pretty nice view, am I right?

Pretty nice view, am I right? ;)