Intro Theme (Phantasy Star 2) Guitar Tab

Submitted: Dec 16, 2007 by Kotex (Last updated: Dec 16, 2007)

5
Average: 5 (1 vote)
Download | Listen
Game: Phantasy Star 2
Composer(s): Tokuhiko Uwabo
Style: Transcription

AutoScroll: Slow | Medium | Fast
Phantasy Star II - Phantasy       
Sega Genesis (1989)
Tabbed by: Kotex
Difficulty: Easy
Started: 12/1/07-Finished 12/15/07
                    


Guitar I
     E  E  E  H        E     H        H           E  E  E  H        S S  
E||-----------------------|--------------------|------------------------|
B||--2--1--2--------------|-----------4--------|-----2--0---------------|
G||-----------1--------L--|--L-----------------|--4--------1------------|
D||-----------------------|--------------------|--------------------2-1-|
A||-----------------------|--------------------|------------------------|
E||-----------------------|--------------------|------------------------|


  H        H           E  E  E  E  E.  E.  E     H        H         
--------------------|-------------------------|--------------------|
--------------------|--------------2-------2--|--4--------2--------|
-----------1--------|--L--3--0--3------3------|--------------------|
--2-----------------|-------------------------|--------------------|
--------------------|-------------------------|--------------------|
--------------------|-------------------------|--------------------|


  E  E  E  E  E  Q    E     E  S S H.              E  E.  E  H        S  
-------------------------|----------------------|-----------------------|
--L--------1-------------|----------------------|--2--1---2-------------|
-----1--------3--1----0--|-----0----------------|------------1--------L-|
--------3----------------|--3----3-1------------|-----------------------|
-------------------------|----------------------|-----------------------|
-------------------------|----------------------|-----------------------|


  E  E  E  E  H           E  E  E  E  E  Q    E     W                 
--------------4--------|--L-----0--4--7--6-------|-------------------|
-----1--2--4-----------|----------------------7--|--L----------------|
--L--------------------|-----4-------------------|-------------------|
-----------------------|-------------------------|-------------------|
-----------------------|-------------------------|-------------------|
-----------------------|-------------------------|-------------------|


  E  Q    S S E  Q    E     H        H           W                 
--6--4----2-2-6--4----2--|--7-----------------|--4----------------|
-------------------------|-----------4--------|-------------------|
-------------------------|--------------------|-------------------|
-------------------------|--------------------|-------------------|
-------------------------|--------------------|-------------------|
-------------------------|--------------------|-------------------|


                       |-3-| |-3-|  |-3-| |-3-|  |-3-| |-3-|  |-3-| |-3-|  
  W                    S S S S S S  S S S S S S  S S S S S S  S S S S S S  
--L----------------|--11-9---9-6---11-9---9-6---11-9---9-6---11-9---9-6---|
-------------------|-------9-----7------9-----7------9-----7------9-----7-|
-------------------|------------------------------------------------------|
-------------------|------------------------------------------------------|
-------------------|------------------------------------------------------|
-------------------|------------------------------------------------------|


   




  |-3-| |-3-|  |-3-| |-3-|  |-3-| |-3-|  |-3-| |-3-|  
   S S S S S S  S S S S S S  S S S S S S  S S S S S S  
--11-9---9-6---11-9---9-6---11-9---9-6---11-9---9-6---|
-------9-----7------9-----7------9-----7------9-----7-|
------------------------------------------------------|
------------------------------------------------------|
------------------------------------------------------|
------------------------------------------------------|


   |-3-| |-3-|  |-3-| |-3-|  |-3-| |-3-|  |-3-| |-3-|  
   S S S S S S  S S S S S S  S S S S S S  S S S S S S  
--11-9---9-6---11-9---9-6---11-9---9-6---11-9---9-6---|
-------9-----7------9-----7------9-----7------9-----7-|
------------------------------------------------------|
------------------------------------------------------|
------------------------------------------------------|
------------------------------------------------------|


   |-3-| |-3-|  |-3-| |-3-|  |-3-| |-3-|  |-3-| |-3-|    3                  3  
   S S S S S S  S S S S S S  S S S S S S  S S S S S S    T H.           E.  S  
--11-9---9-6---11-9---9-6---11-9---9-6---11-9---9-6---|-----------------------|
-------9-----7------9-----7------9-----7------9-----7-|-----------------------|
------------------------------------------------------|-----------------------|
------------------------------------------------------|-----------------------|
------------------------------------------------------|-----------------------|
------------------------------------------------------|-----------------------|


                                            3                               3  
  W                   H.           E.  T. X X    T. X S E  S S E   H        X  
-------------------|------------------------4-|--L--L---4--9-8-9--11----------|
-------------------|--------------------------|-------4-----------------------|
-------------------|--------------------------|-------------------------------|
-------------------|--------------------------|-------------------------------|
-------------------|--------------------------|-------------------------------|
-------------------|--------------------------|-------------------------------|


                                                      3          3  
  W                   W                   H        S. T E  E  E  X  
-------------------|-------------------|----------------4--9--8--L-|
-------------------|-------------------|---------------------------|
-------------------|-------------------|---------------------------|
-------------------|-------------------|---------------------------|
-------------------|-------------------|---------------------------|
-------------------|-------------------|---------------------------|









     3                 3                                          
  S. T E  H.           X    W                   W                 
--L--L-------------------|-------------------|-------------------|
-------9--7--------------|-------------------|-------------------|
-------------------------|-------------------|-------------------|
-------------------------|-------------------|-------------------|
-------------------------|-------------------|-------------------|
-------------------------|-------------------|-------------------|




              3            3       3                   3                      
  H        S. T  E  E   E  X    S. T  E   H.           X    W                 
----------------11-----------|-----------14--------------|-------------------|
--------------------9--11--L-|--L--L---------------------|-------------------|
-----------------------------|-------11------------------|-------------------|
-----------------------------|---------------------------|-------------------|
-----------------------------|---------------------------|-------------------|
-----------------------------|---------------------------|-------------------|


                                              3                             3  
  W                   H        E.  T. X E  E  X    E.  T. X E  Q.     E  E  X  
-------------------|--------------------9-------|-----------6---------4-------|
-------------------|-----------------------9--L-|--L---L--L----7---------4--L-|
-------------------|----------------------------|-----------------------------|
-------------------|----------------------------|-----------------------------|
-------------------|----------------------------|-----------------------------|
-------------------|----------------------------|-----------------------------|


                        3       3                     3  
  H.           E.  T. X X    S. T E  E  E  Q    E  E  X  
--------------------------|-------7--5--9--7----5--4--L-|
--L------------L---L--L---|-----------------------------|
--------------------------|-----------------------------|
--------------------------|-----------------------------|
--------------------------|-----------------------------|
--------------------------|-----------------------------|


     3                    3       3                   3  
  S. T E   H        E  E  X    S. T  E  H        Q    X  
--L--L-9--11--------L--9--L-|--L--L---------------------|
----------------------------|-------11--9---------------|
----------------------------|---------------------------|
----------------------------|---------------------------|
----------------------------|---------------------------|
----------------------------|---------------------------|


     3                     3                              3  
  S. T  E   E  Q    Q.     X    E.  T. X E  Q     Q.      X  
-----------------------------|---------------------------11-|
-------11------9-------------|-----------7--9----10---------|
-----------11-------8------L-|--L---L--L--------------------|
-----------------------------|------------------------------|
-----------------------------|------------------------------|
-----------------------------|------------------------------|



          3             3                3          3  
  Q    S. T H        E  X    H        S. T E  E  E  X  
--L----L--L-9--------L----|-------------------9--7--L-|
--------------------------|----------------9----------|
--------------------------|---------------------------|
--------------------------|---------------------------|
--------------------------|---------------------------|
--------------------------|---------------------------|





     3                      3       3                           3  
  S. T E  E  Q    E   E  E  X    S. T  E   E   Q     E   E   E  X  
--L--L----9--7-------11--9--L-|--L--L-----11--------14--11--16--L-|
-------9----------9-----------|-------12------12------------------|
------------------------------|-------16--------------------------|
------------------------------|-----------------------------------|
------------------------------|-----------------------------------|
------------------------------|-----------------------------------|


                        3                                          
  H.           E.  T. X X    W                   W                 
--L------------L---L--L---|-------------------|-------------------|
--------------------------|-------------------|-------------------|
--------------------------|-------------------|-------------------|
--------------------------|-------------------|-------------------|
--------------------------|-------------------|-------------------|
--------------------------|-------------------|-------------------|


              3          3       3                 3  
  H        S. T E  E  E  X    S. T E  H.           X  
----------------4--9--8--L-|--L--L-------------------|
---------------------------|-------9--7------------L-|
---------------------------|-------------------------|
---------------------------|-------------------------|
---------------------------|-------------------------|
---------------------------|-------------------------|


                        3                                    3            3  
  H.           E.  T. X X    W                   H        S. T E  S S  E  X  
--------------------------|-------------------|----------------9----9-14--L-|
--L------------L---L--L---|-------------------|-------------------9---------|
--------------------------|-------------------|-----------------------------|
--------------------------|-------------------|-----------------------------|
--------------------------|-------------------|-----------------------------|
--------------------------|-------------------|-----------------------------|


                                            3                      
  W                   H.           E.  T. X X    W                 
--L----------------|--L------------L---L--L---|-------------------|
-------------------|--------------------------|-------------------|
-------------------|--------------------------|-------------------|
-------------------|--------------------------|-------------------|
-------------------|--------------------------|-------------------|
-------------------|--------------------------|-------------------|


              3          3       3                 3  
  H        S. T E  E  E  X    S. T E  H.           X  
----------------9--8-------|-------------------------|
----------------------9--L-|--L--L-7--6------------L-|
---------------------------|-------------------------|
---------------------------|-------------------------|
---------------------------|-------------------------|
---------------------------|-------------------------|





                        3                                    3           3  
  H.           E.  T. X X    W                   H        S. T E  S E  S X  
--------------------------|-------------------|-------------------2-4--8-9-|
--L------------L---L--L---|-------------------|----------------4-----------|
--------------------------|-------------------|----------------------------|
--------------------------|-------------------|----------------------------|
--------------------------|-------------------|----------------------------|
--------------------------|-------------------|----------------------------|


                           3                              3  
  H        E.  T. X  E  E  X    H        E.  T. X  E   E  X  
--L--------L---L--L-11--9--L-|--L--------L---L--L-16--14----|
-----------------------------|------------------------------|
-----------------------------|------------------------------|
-----------------------------|------------------------------|
-----------------------------|------------------------------|
-----------------------------|------------------------------|


                         3       3                        3  
  H.           E.  T. X  X    S. T  E   E   Q.      E  E  X  
---------------------------|-----------------------11--9--L-|
------------------------13-|--L--L-14--13-------------------|
---------------------------|---------------13---------------|
---------------------------|--------------------------------|
---------------------------|--------------------------------|
---------------------------|--------------------------------|


                            3              3            3  
  H        E.  T. X  E   E  X    Q.     S. T  Q    Q    X  
--L--------L---L--L-14--------|--------------11----9------|
------------------------14--L-|--L------L--L--------------|
------------------------------|---------------------------|
------------------------------|---------------------------|
------------------------------|---------------------------|
------------------------------|---------------------------|


                          3              3             3  
  E.  T. X E  Q    Q.     X    Q.     S. T  Q     Q    X  
-----------7--6----7------9-|--L------L--L-11----14----L-|
----------------------------|----------------------------|
----------------------------|----------------------------|
----------------------------|----------------------------|
----------------------------|----------------------------|
----------------------------|----------------------------|


                                3                                   3  
  E.  T. X  E   Q     Q     E   X    E.  T. X  E   Q     E   E   E  X  
--L---L--L------------------------|-----------------------------------|
-----------12--------11--------12-|--L---L--L-----14--------16--------|
---------------13----------11-----|-----------13--------15------16----|
----------------------------------|-----------------------------------|
----------------------------------|-----------------------------------|
----------------------------------|-----------------------------------|





                                 3                          3  
  E.  T. X  E   E   Q     E   E  X    H.           E.  T. X X  
-----------------------------11--L-|--L------------L---L--L---|
-----------14----------------------|--------------------------|
---------------15--16----13--------|--------------------------|
-----------------------------------|--------------------------|
-----------------------------------|--------------------------|
-----------------------------------|--------------------------|


                        3                            3  
  H.           E.  T. X X    H        E.  T. X E  E  X  
--------------------------|----------------------------|
--------------------------|----------------------------|
--------------------------|--------------------3--1--L-|
------------------------1-|--L--------L---L--L---------|
--------------------------|----------------------------|
--------------------------|----------------------------|


              3          3            3             3  
  H        S. T E  E  E  X    Q    S. T H        E  X  
---------------------------|--------------------------|
-------------------0-------|------------4--------L--L-|
--L--------L--L-1-----3--1-|--L----L--L---------------|
---------------------------|--------------------------|
---------------------------|--------------------------|
---------------------------|--------------------------|


              3          3            3             3  
  H        S. T E  E  E  X    Q    S. T H        E  X  
---------------------------|--------------------------|
--L--------L--L-2--4--2--0-|--L----L--L---------------|
---------------------------|------------3--------L--L-|
---------------------------|--------------------------|
---------------------------|--------------------------|
---------------------------|--------------------------|


              3          3            3             3  
  H        S. T E  E  E  X    Q    S. T Q.     Q    X  
---------------------------|--------------------------|
---------------------------|------------2------0------|
--L--------L--L-0--1--3--3-|--L----L--L-------------3-|
---------------------------|--------------------------|
---------------------------|--------------------------|
---------------------------|--------------------------|


                        3                            3  
  H.           E.  T. X X    H        E.  T. X E  E  X  
--------------------------|----------------------------|
--------------------------|----------------------------|
--L------------L---L--L---|--------------------3--1--L-|
------------------------1-|--L--------L---L--L---------|
--------------------------|----------------------------|
--------------------------|----------------------------|





              3          3            3             3  
  H        S. T E  E  E  X    Q    S. T H        E  X  
-------------------------0-|--L----L--L---------------|
-------------------0-------|------------4--------L--L-|
--L--------L--L-1-----3----|--------------------------|
---------------------------|--------------------------|
---------------------------|--------------------------|
---------------------------|--------------------------|


              3          3            3             3  
  H        S. T E  E  E  X    Q    S. T Q.     Q    X  
---------------------------|--------------------------|
--L--------L--L----2--0----|------------0-------------|
----------------4--------3-|--L----L--L--------1----L-|
---------------------------|--------------------------|
---------------------------|--------------------------|
---------------------------|--------------------------|


                          3            3             3  
  E.  T. X Q    Q    Q    X    Q    S. T H        E  X  
----------------------------|--------------------------|
----------------------------|--------------------------|
--L---L--L-0----1----3------|--------------------------|
--------------------------4-|--L----L--L-3--------L--4-|
----------------------------|--------------------------|
----------------------------|--------------------------|


            3          3                                              3  
  Q.     S. T H        X    W                   H.           E.  T. X X  
-------------------------|-------------------|--------------------------|
--------------2--------1-|--L----------------|--L------------L---L--L---|
-------------------------|-------------------|--------------------------|
--L------L--L------------|-------------------|--------------------------|
-------------------------|-------------------|--------------------------|
-------------------------|-------------------|--------------------------|


                                                                3  
  W                   W                   H.           E.  T. X X  
-------------------|-------------------|------------------------4-|
-------------------|-------------------|--------------------------|
-------------------|-------------------|--------------------------|
-------------------|-------------------|--------------------------|
-------------------|-------------------|--------------------------|
-------------------|-------------------|--------------------------|


                             3                                          
  T. X S E  S S E   H        X    W                   W                 
--L--L---4--9-8-9--11----------|-------------------|-------------------|
-------4-----------------------|-------------------|-------------------|
-------------------------------|-------------------|-------------------|
-------------------------------|-------------------|-------------------|
-------------------------------|-------------------|-------------------|
-------------------------------|-------------------|-------------------|





              3          3       3                 3                      
  H        S. T E  E  E  X    S. T E  H.           X    W                 
----------------4--9--8--L-|--L--L-------------------|-------------------|
---------------------------|-------9--7--------------|-------------------|
---------------------------|-------------------------|-------------------|
---------------------------|-------------------------|-------------------|
---------------------------|-------------------------|-------------------|
---------------------------|-------------------------|-------------------|


                                  3            3       3                   3  
  W                   H        S. T  E  E   E  X    S. T  E   H.           X  
-------------------|----------------11-----------|-----------14--------------|
-------------------|--------------------9--11--L-|--L--L---------------------|
-------------------|-----------------------------|-------11------------------|
-------------------|-----------------------------|---------------------------|
-------------------|-----------------------------|---------------------------|
-------------------|-----------------------------|---------------------------|


                                                                  3  
  W                   W                   H        E.  T. X E  E  X  
-------------------|-------------------|--------------------9-------|
-------------------|-------------------|-----------------------9--L-|
-------------------|-------------------|----------------------------|
-------------------|-------------------|----------------------------|
-------------------|-------------------|----------------------------|
-------------------|-------------------|----------------------------|


                           3                          3  
  E.  T. X E  Q.     E  E  X    H.           E.  T. X X  
-----------6---------4-------|--------------------------|
--L---L--L----7---------4--L-|--L------------L---L--L---|
-----------------------------|--------------------------|
-----------------------------|--------------------------|
-----------------------------|--------------------------|
-----------------------------|--------------------------|


     3                     3       3                    3  
  S. T E  E  E  Q    E  E  X    S. T E   H        E  E  X  
-------7--5--9--7----5--4--L-|--L--L-9--11--------L--9--L-|
-----------------------------|----------------------------|
-----------------------------|----------------------------|
-----------------------------|----------------------------|
-----------------------------|----------------------------|
-----------------------------|----------------------------|


     3                   3       3                     3  
  S. T  E  H        Q    X    S. T  E   E  Q    Q.     X  
--L--L---------------------|-----------------------------|
-------11--9---------------|-------11------9-------------|
---------------------------|-----------11-------8------L-|
---------------------------|-----------------------------|
---------------------------|-----------------------------|
---------------------------|-----------------------------|





                            3            3             3  
  E.  T. X E  Q     Q.      X    Q    S. T H        E  X  
---------------------------11-|--L----L--L-9--------L----|
-----------7--9----10---------|--------------------------|
--L---L--L--------------------|--------------------------|
------------------------------|--------------------------|
------------------------------|--------------------------|
------------------------------|--------------------------|


              3          3       3                      3  
  H        S. T E  E  E  X    S. T E  E  Q    E   E  E  X  
-------------------9--7--L-|--L--L----9--7-------11--9--L-|
----------------9----------|-------9----------9-----------|
---------------------------|------------------------------|
---------------------------|------------------------------|
---------------------------|------------------------------|
---------------------------|------------------------------|


     3                           3                          3  
  S. T  E   E   Q     E   E   E  X    H.           E.  T. X X  
--L--L-----11--------14--11--16--L-|--L------------L---L--L---|
-------12------12------------------|--------------------------|
-------16--------------------------|--------------------------|
-----------------------------------|--------------------------|
-----------------------------------|--------------------------|
-----------------------------------|--------------------------|


                                                      3          3  
  W                   W                   H        S. T E  E  E  X  
-------------------|-------------------|----------------4--9--8--L-|
-------------------|-------------------|---------------------------|
-------------------|-------------------|---------------------------|
-------------------|-------------------|---------------------------|
-------------------|-------------------|---------------------------|
-------------------|-------------------|---------------------------|


     3                 3                          3                      
  S. T E  H.           X    H.           E.  T. X X    W                 
--L--L-------------------|--------------------------|-------------------|
-------9--7------------L-|--L------------L---L--L---|-------------------|
-------------------------|--------------------------|-------------------|
-------------------------|--------------------------|-------------------|
-------------------------|--------------------------|-------------------|
-------------------------|--------------------------|-------------------|


              3            3                                              3  
  H        S. T E  S S  E  X    W                   H.           E.  T. X X  
----------------9----9-14--L-|--L----------------|--L------------L---L--L---|
-------------------9---------|-------------------|--------------------------|
-----------------------------|-------------------|--------------------------|
-----------------------------|-------------------|--------------------------|
-----------------------------|-------------------|--------------------------|
-----------------------------|-------------------|--------------------------|





                                  3          3       3                 3  
  W                   H        S. T E  E  E  X    S. T E  H.           X  
-------------------|----------------9--8-------|-------------------------|
-------------------|----------------------9--L-|--L--L-7--6------------L-|
-------------------|---------------------------|-------------------------|
-------------------|---------------------------|-------------------------|
-------------------|---------------------------|-------------------------|
-------------------|---------------------------|-------------------------|


                        3                                    3           3  
  H.           E.  T. X X    W                   H        S. T E  S E  S X  
--------------------------|-------------------|-------------------2-4--8-9-|
--L------------L---L--L---|-------------------|----------------4-----------|
--------------------------|-------------------|----------------------------|
--------------------------|-------------------|----------------------------|
--------------------------|-------------------|----------------------------|
--------------------------|-------------------|----------------------------|


                           3                              3  
  H        E.  T. X  E  E  X    H        E.  T. X  E   E  X  
--L--------L---L--L-11--9--L-|--L--------L---L--L-16--14----|
-----------------------------|------------------------------|
-----------------------------|------------------------------|
-----------------------------|------------------------------|
-----------------------------|------------------------------|
-----------------------------|------------------------------|


                         3       3                        3  
  H.           E.  T. X  X    S. T  E   E   Q.      E  E  X  
---------------------------|-----------------------11--9--L-|
------------------------13-|--L--L-14--13-------------------|
---------------------------|---------------13---------------|
---------------------------|--------------------------------|
---------------------------|--------------------------------|
---------------------------|--------------------------------|


                            3              3            3  
  H        E.  T. X  E   E  X    Q.     S. T  Q    Q    X  
--L--------L---L--L-14--------|--------------11----9------|
------------------------14--L-|--L------L--L--------------|
------------------------------|---------------------------|
------------------------------|---------------------------|
------------------------------|---------------------------|
------------------------------|---------------------------|


                          3              3             3  
  E.  T. X E  Q    Q.     X    Q.     S. T  Q     Q    X  
-----------7--6----7------9-|--L------L--L-11----14----L-|
----------------------------|----------------------------|
----------------------------|----------------------------|
----------------------------|----------------------------|
----------------------------|----------------------------|
----------------------------|----------------------------|





                                3                                   3  
  E.  T. X  E   Q     Q     E   X    E.  T. X  E   Q     E   E   E  X  
--L---L--L------------------------|-----------------------------------|
-----------12--------11--------12-|--L---L--L-----14--------16--------|
---------------13----------11-----|-----------13--------15------16----|
----------------------------------|-----------------------------------|
----------------------------------|-----------------------------------|
----------------------------------|-----------------------------------|


                                 3                          3  
  E.  T. X  E   E   Q     E   E  X    H.           E.  T. X X  
-----------------------------11--L-|--L------------L---L--L---|
-----------14----------------------|--------------------------|
---------------15--16----13--------|--------------------------|
-----------------------------------|--------------------------|
-----------------------------------|--------------------------|
-----------------------------------|--------------------------|


                        3                            3  
  H.           E.  T. X X    H        E.  T. X E  E  X  
--------------------------|----------------------------|
--------------------------|----------------------------|
--------------------------|--------------------3--1--L-|
------------------------1-|--L--------L---L--L---------|
--------------------------|----------------------------|
--------------------------|----------------------------|


              3          3            3             3  
  H        S. T E  E  E  X    Q    S. T H        E  X  
---------------------------|--------------------------|
-------------------0-------|------------4--------L--L-|
--L--------L--L-1-----3--1-|--L----L--L---------------|
---------------------------|--------------------------|
---------------------------|--------------------------|
---------------------------|--------------------------|


              3          3            3             3  
  H        S. T E  E  E  X    Q    S. T H        E  X  
---------------------------|--------------------------|
--L--------L--L-2--4--2--0-|--L----L--L---------------|
---------------------------|------------3--------L--L-|
---------------------------|--------------------------|
---------------------------|--------------------------|
---------------------------|--------------------------|


              3          3            3             3  
  H        S. T E  E  E  X    Q    S. T Q.     Q    X  
---------------------------|--------------------------|
---------------------------|------------2------0------|
--L--------L--L-0--1--3--3-|--L----L--L-------------3-|
---------------------------|--------------------------|
---------------------------|--------------------------|
---------------------------|--------------------------|





                        3                            3  
  H.           E.  T. X X    H        E.  T. X E  E  X  
--------------------------|----------------------------|
--------------------------|----------------------------|
--L------------L---L--L---|--------------------3--1--L-|
------------------------1-|--L--------L---L--L---------|
--------------------------|----------------------------|
--------------------------|----------------------------|


              3          3            3             3  
  H        S. T E  E  E  X    Q    S. T H        E  X  
-------------------------0-|--L----L--L---------------|
-------------------0-------|------------4--------L--L-|
--L--------L--L-1-----3----|--------------------------|
---------------------------|--------------------------|
---------------------------|--------------------------|
---------------------------|--------------------------|


              3          3            3             3  
  H        S. T E  E  E  X    Q    S. T Q.     Q    X  
---------------------------|--------------------------|
--L--------L--L----2--0----|------------0-------------|
----------------4--------3-|--L----L--L--------1----L-|
---------------------------|--------------------------|
---------------------------|--------------------------|
---------------------------|--------------------------|


                          3            3             3  
  E.  T. X Q    Q    Q    X    Q    S. T H        E  X  
----------------------------|--------------------------|
----------------------------|--------------------------|
--L---L--L-0----1----3------|--------------------------|
--------------------------4-|--L----L--L-3--------L--4-|
----------------------------|--------------------------|
----------------------------|--------------------------|


            3          3                                                
  Q.     S. T H        X    W                   H.           E.  T. X   
-------------------------|-------------------|------------------------||
--------------2--------1-|--L----------------|--L------------L---L--L-||
-------------------------|-------------------|------------------------||
--L------L--L------------|-------------------|------------------------||
-------------------------|-------------------|------------------------||
-------------------------|-------------------|------------------------||




Duration Legend
---------------
W - whole
H - half
Q - quarter
E - 8th
S - 16th
T - 32nd
X - 64th
. - note dotted
|-n-|  - n-tuplets


Tablature Legend
----------------
L - tied note
Login or Register to remove this ad.