Ads

Old Map (Golden Axe) Guitar Tab

Submitted: Oct 03, 2007 by Kotex (Last updated: Sep 19, 2009)

5
Average: 5 (2 votes)
Download | Listen
Game: Golden Axe
Composer(s): Decky, Imocky, Nankyoku
Style: 2 or more instruments, Transcription

AutoScroll: Slow | Medium | Fast
Golden Axe “Old Map”  Tabbed By Kotex  7/21/07

Guitar I
      E   E   E   E   E   E   E   E      E   E   E   E   E   E   E   E
E||------20--19--20--22--20--19--20--|------20--19--20--22--20--19--20--|
B||----------------------------------|----------------------------------|
G||--21------------------------------|--21------------------------------|
D||----------------------------------|----------------------------------|
A||----------------------------------|----------------------------------|
E||----------------------------------|----------------------------------|

   E   E   E   E   E   E   E   E      E   E   E   E   E   E   E   E
------20--19--20--22--20--19--20--|------20--19--20--22--20--19--20--|
----------------------------------|----------------------------------|
--21------------------------------|--21------------------------------|
----------------------------------|----------------------------------|
----------------------------------|----------------------------------|
----------------------------------|----------------------------------|

   E   E   E   E   E   E   E   E      E   E   E   E   E   E   E   E
------20--19--20--22--20--19--20--|------20--19--20--22--20--19--20--|
----------------------------------|----------------------------------|
--21------------------------------|--21------------------------------|
----------------------------------|----------------------------------|
----------------------------------|----------------------------------|
----------------------------------|----------------------------------|

   E   E   E   E   E   E   E   E      E   E   E   E   E   E   E   E
------20--19--20--22--20--19--20--|------20--19--20--22--20--19--20--|
----------------------------------|----------------------------------|
--21------------------------------|--21------------------------------|
----------------------------------|----------------------------------|
----------------------------------|----------------------------------|
----------------------------------|----------------------------------|

   E.   E.   E   E.   E.   E      W
--------------------------15--|--17----------------||
---------------------15-------|--------------------||
--21--------17--16------------|--------------------||
-------19---------------------|--------------------||
------------------------------|--------------------||
------------------------------|--------------------||

Guitar II
      H         H            H         H            H         H
E||--12--------12--------|--12--------12--------|--12--------12--------|
B||----------------------|----------------------|----------------------|
G||----------------------|----------------------|----------------------|
D||----------------------|----------------------|----------------------|
A||----------------------|----------------------|----------------------|
E||----------------------|----------------------|----------------------|

   H         H            H         H            H         H
--12--------12--------|--12--------12--------|--12--------12--------|
----------------------|----------------------|----------------------|
----------------------|----------------------|----------------------|
----------------------|----------------------|----------------------|
----------------------|----------------------|----------------------|
----------------------|----------------------|----------------------|

   H         H            H         H            H         H
--12--------12--------|--12--------12--------|----------------------|
----------------------|----------------------|----------------------|
----------------------|----------------------|--10------------------|
----------------------|----------------------|------------12--------|
----------------------|----------------------|----------------------|
----------------------|----------------------|----------------------|

   W
--------------------||
--------------------||
--------------------||
--11----------------||
--------------------||
--------------------||

Gutar III
     W                   W                   W
E||--0----------------|--L----------------|--0----------------|
B||-------------------|-------------------|-------------------|
G||-------------------|-------------------|-------------------|
D||-------------------|-------------------|-------------------|
A||-------------------|-------------------|-------------------|
E||-------------------|-------------------|-------------------|

  W                   W                   W                   W
--L----------------|--0----------------|--L----------------|--0----------------|
-------------------|-------------------|-------------------|-------------------|
-------------------|-------------------|-------------------|-------------------|
-------------------|-------------------|-------------------|-------------------|
-------------------|-------------------|-------------------|-------------------|
-------------------|-------------------|-------------------|-------------------|

  W                   H        H           W
--L----------------|--0-----------------|-------------------||
-------------------|-----------0--------|-------------------||
-------------------|--------------------|--2----------------||
-------------------|--------------------|-------------------||
-------------------|--------------------|-------------------||
-------------------|--------------------|-------------------||

Guitar IV
     W                   W                   W
E||-------------------|-------------------|-------------------|
B||--1----------------|--L----------------|--0----------------|
G||-------------------|-------------------|-------------------|
D||-------------------|-------------------|-------------------|
A||-------------------|-------------------|-------------------|
E||-------------------|-------------------|-------------------|

  W                   W                   W                   W
-------------------|-------------------|-------------------|-------------------|
--L----------------|--1----------------|--L----------------|--0----------------|
-------------------|-------------------|-------------------|-------------------|
-------------------|-------------------|-------------------|-------------------|
-------------------|-------------------|-------------------|-------------------|
-------------------|-------------------|-------------------|-------------------|

  W                   H        H           W
-------------------|--------------------|-------------------||
--L----------------|--1-----------------|-------------------||
-------------------|-----------0--------|-------------------||
-------------------|--------------------|--2----------------||
-------------------|--------------------|-------------------||
-------------------|--------------------|-------------------||

Guitar V
     W                   W                   W
E||-------------------|-------------------|-------------------|
B||-------------------|-------------------|-------------------|
G||--2----------------|--L----------------|--0----------------|
D||-------------------|-------------------|-------------------|
A||-------------------|-------------------|-------------------|
E||-------------------|-------------------|-------------------|

  W                   W                   W                   W
-------------------|-------------------|-------------------|-------------------|
-------------------|-------------------|-------------------|-------------------|
--L----------------|--2----------------|--L----------------|--0----------------|
-------------------|-------------------|-------------------|-------------------|
-------------------|-------------------|-------------------|-------------------|
-------------------|-------------------|-------------------|-------------------|

  W                   H        H           W
-------------------|--------------------|-------------------||
-------------------|--------------------|-------------------||
--L----------------|--2-----------------|-------------------||
-------------------|-----------2--------|--2----------------||
-------------------|--------------------|-------------------||
-------------------|--------------------|-------------------||

Duration Legend
---------------
W - whole
H - half
Q - quarter
E - 8th
S - 16th
T - 32nd
X - 64th
. - note dotted
|-n-|  - n-tuplets
Login or Register to remove this ad.

1 comment on Old Map

Nice tab, Golden Axe kicks

5

Nice tab, Golden Axe kicks ass!!!