Welcome to the Machine (Ecco the Dolphin) Guitar Tab

Submitted: Aug 31, 2008 by Werts (Last updated: Oct 31, 2009)

5
Average: 5 (1 vote)
Download | Listen
Game: Ecco the Dolphin
Composer(s): Spencer N. Nilsen
Style: Transcription

AutoScroll: Slow | Medium | Fast
Welcome to the Machine
Ecco the Dolphin
Sega Genesi/MegaDrive Version
Composer Unknown, 1992
Tabbed by: Werts ([email protected])
8-27-08

This song is basically one repeating melody outlined by a bass that steps 
in a little bit into the song. The song is easily adapted around the fretboard;
you might need to do that to play it quickly. 
In addition, this tab sounds lower than the actual song.

e|-3-0-5-0-7-0-5-7-10-0-8-0-7-0-3-5-3-0-5-0-7-0-3-7-5---8---10---5-8-|
B|----------------------------------------------------6---6----6-----|
G|-------------------------------------------------------------------|
D|-------------------------------------------------------------------|
A|-------------------------------------------------------------------|
E|-------------------------------------------------------------------|

Completely steady. Throughout this riff there are no changes in note length.

And now for the bass.

e|-------6-------5-------4---3-4-------|
B|---3-4-----3-4-----3-4---------1--4--|
G|-------------------------------------|
D|-------------------------------------|
A|-------------------------------------|
E|-------------------------------------|

There is a slight variation of this bass later. I can't figure it out; see if you can.

Have fun.
Login or Register to remove this ad.