Wicked Flame (Arcus Odyssey) Guitar Tab

Submitted: Oct 03, 2007 by Kotex (Last updated: Oct 12, 2007)

5
Average: 5 (1 vote)
Download | Listen
Game: Arcus Odyssey
Composer(s): Motoi Sakuraba
Style: Transcription

AutoScroll: Slow | Medium | Fast
Arcus Odyssey
Sega Genesis (1991)
Tabbed by: Kotex
Difficulty: Hard
Started 9/11/2007- Finshed 10/7/07


Guitar  I
     S S. S S. T S S. T T S. T S. T S. S.  
E||---------------------------------------|
B||---------------------------------------|
G||---------0-----------------------------|
D||----6-----------4------1---------------|
A||----------------------------4----2-----|
E||--4----4------4------4-----------------|


                3                            3                             3  
  T E  T T E  T Q    E  T T S. E  T. X    S. T E  T T E  T T E  T S. E  E  X  
---------------------------------------|-------------------------------------|
---------------------------------------|-------------------------------------|
---------------------------------------|-------------------------------------|
---------------------------------------|-------------------------------------|
----2--L---1--L-2----1--L---------2--L-|--L----1--L---2--L---1--L-4-----2--L-|
----------------------------4----------|-------------------------------------|


  3          3                 3    3       3                             3  
  T T E  T T Q    E  T S. E  T Q    T    E  X E  T T E  T S. E  T E  T S. T  
--------------------------------------|-------------------------------------|
--------------------------------------|-------------------------------------|
--------------------------------------|-------------------------------------|
--------------------------------------|-------------------------------------|
--L---1--L---2----1--L---------2----1-|--L--L-2--L---1--L-4-------2--L-1--L-|
-----------------------4--------------|-------------------------------------|


  3   3                      3                                           
  S T Q    E  T S. E  T E  T Q    T    E  T E  T T S. E  E  T E  T T S.  
------------------------------------|-----------------------------------|
------------------------------------|-----------------------------------|
------------------------------------|-----------------------------------|
------------------------------------|-----------------------------------|
--L---2----1--L---------2--L-1----2-|--L----1--L---4-----2--L-1--L---2--|
----------------4-------------------|-----------------------------------|


      3                 3         3  
  S T Q    S. E  E  T T Q    E  T X  
------------------------------------|
------------------------------------|
------------------------------------|
------------------------------------|
--L---1----------2--L---1----2--L-1-|
-----------4------------------------|


   




  3                                            3  
  E  T T S. T T T T T T T T T T T T T T T S S S S X  
----------------------------------------------------|
------------------------------------------------0-L-|
------------------1-1---1---1---1---1-1---1-1-------|
--------------4-------------------------------------|
--L--L---4------------------------------------------|
----------------------------------------------------|


      3                                 3  
  E.  T S S S T S T T T T T T S T S S S S  
------------------------------------------|
--L---L-----------------------------------|
------------------------------------------|
------------------------------------------|
------------------------------------------|
--------0-0-0-0-0-0---0---0---2-2-2-2-2-2-|


  3                                   3  
  T S S T T T T T S S S T S S S S E.  S  
----------------------------------------|
----------------------------------0---L-|
----------1---1---1---1---1-1-----------|
--------4---------------------4---------|
----------------------------------------|
--L-2-2---------------------------------|


                                           3  
  T. X S S S T S S T T T T T S S S S S S S X  
---------------------------------------------|
--L--L---------------------------------------|
-------------------------------------------1-|
---------------------------------------------|
---------------------------------------------|
-------0-0-0-0-0-0-0---0---------------------|


  3                                      3  
  T T T T T T T S T S S S S S Q    T T T S  
------------4---2-0------------------------|
--------0-2---------4-2-------4----L-------|
--L-3-------------------1------------------|
--------------------------4----------------|
-------------------------------------------|
-------------------------------------0---0-|


 







 3                                     3  
  T T S S S S S T T T S S S S S T S S S X  
------------------------------------------|
------------------------------------------|
------------------------------------1---1-|
----------------------------------4-------|
------------------------------------------|
--L-0-0-0-0-0-0-2---2-2-2-2-2-2-2---------|


  






3                                 3  
  T S. T S S S S S Q    T T T S T S S  
--------------------------------------|
--------------------------------------|
--L----1-1---1-----1----L-------------|
---------------4----------------------|
--------------------------------------|
--------------------------0---0-0-0-0-|


  3                                       3  
  T S S S S T T T T T S S S T E  T T E  T X  
--------------------------------------------|
--------------------------------------------|
--------------------------------------------|
-------------------------------------1--L---|
------------------------------2--L----------|
--L-0-0-0-----------------------------------|


  3                     3              
  T S. E  T T E  T S. T Q    E  T T S  
--------------------------------------|
-------------------0----0-----------0-|
-------1--L---3--L-----------3--L-----|
----4---------------------------------|
--------------------------------------|
--------------------------------------|


  






         3                              
  T E  T T Q    S. T E  T E  T T S. T. X  
-----------------------------------------|
--L-2--L------------------0--L---2--2--L-|
-----------3---------3--L----------------|
----------------4------------------------|
-----------------------------------------|
-----------------------------------------|


     3             3                   3         3                         
  S. X T E  T T S. Q    E  T T S. T S. X    T. X Q    S. T Q    S. Q    S  
-------------------0---------------------|--------------------------------|
--L------0--L-----------4--L---2---------|-----------------0----L---------|
----------------3-------------------3--L-|--L--L-1----0------------3----L-|
-----------------------------------------|--------------------------------|
-----------------------------------------|--------------------------------|
-----------------------------------------|--------------------------------|


  Q    Q    S. Q.     T    E  T T Q    S. Q.     S.  
------------------------|---------------------------|
-------2----L--0------L-|--L--L---0----L------------|
--L---------------------|-----------------3------L--|
------------------------|---------------------------|
------------------------|---------------------------|
------------------------|---------------------------|


  S. Q    S. Q.     S T S.    T T T T T T T T T T T T T T T T T T S T Q    T S  
---------------------------|---------------------------------------------------|
-----2----L--0------L---2--|------------------------------------------0----L---|
--L------------------------|--------1---1-1---1---1---1---1---1---1------------|
---------------------------|----4----------------------------------------------|
---------------------------|---------------------------------------------------|
---------------------------|-------------------------------------------------0-|


  S S T T T T T S S S S S S T S T T T T T T T T  
------------------------------------------------|
----------------------------------------------0-|
----------------------------------------1---3---|
------------------------------------------------|
------------------------------------------------|
--0-0-0---0---0-0-0-2-2-2-2-2-2-2---2-----------|


  T T T S S S S S S T Q    T S S S T    T T T T T T S S S S T S S S S S S. S S  
----4---2-0--------------------------|-----------------------------------------|
--L---2-----4-2-------0----L---------|-----------------------------------------|
----------------1-1------------------|----------------------------------1----0-|
-------------------------------------|-----------------------------------------|
-------------------------------------|-----------------------------------------|
-----------------------------0-0-0-0-|--L-0---0---0-0-2-2-2-2-2-2-2-2-4----4---|


 




 T T S S. S S. T S. T S. S S S S S T T  
----------------------------------------|
----------------------------------------|
--L-------------------------------------|
--------4----1--------------------------|
------------------4----2----------------|
------4----4--------------0-0-0-0-0-0-0-|


 







 T T T T T S S T S S S S S T T T T T S S S T  
----------------------------------------------|
----------------------------------------------|
----------------------------------------------|
--------------------------------------------1-|
----------------------------1---2-4---1-2-4---|
----0---2---2-2-2-2-2-2-2-4-------------------|


  T T S S S T T T T T S S S S S S T S T T T T  
----------------------------------------------|
--------------------------------------0-------|
----------------------------1-3---1-3-----0---|
--L-----1-2-----1---2-4-2-4-----4-------------|
----2-4-----4---------------------------------|
----------------------------------------------|


 





 T T T S S S S S S S Q.     S T    S T S. T S. Q.     S. E.  T  
--------------0-3----------------|------------------------------|
--------0-2-4------------------1-|--L-----------1------L--------|
--1---3-------------0-1------L---|------3----1------------------|
------------------3--------------|------------------------3---L-|
---------------------------------|------------------------------|
---------------------------------|------------------------------|


  E.  T T H        S S. T S    T T S. Q.     S T Q.      
----------------------------|---------------------------|
----------0--------L------0-|--L---2--0------L----------|
---------------------3------|--------------------1------|
--L---L---------------------|---------------------------|
----------------------------|---------------------------|
----------------------------|---------------------------|


  S T H        S S. T S. T S.    H.           E  T T S  
----------------------2----4--|--5------------L--L---4-|
-----------------2------------|------------------------|
--L---------------------------|------------------------|
------4--------L--------------|------------------------|
------------------------------|------------------------|
------------------------------|------------------------|









  S. E  T T S. E  T T E  T S. T E  T    Q    T T E.  T E.  T T T S E   
--L--2--L---0------------------------|--------------------------------|
---------------0--L------------------|-----------------4---L----------|
----------------------1--L-----------|-----------3---L-----------0-1--|
---------------------------2----1--L-|--L----L-----------------3------|
-------------------------------------|--------------------------------|
-------------------------------------|--------------------------------|


  Q    S T S. T S. S. T Q    S    E  T Q.     S Q.     T  
-------------------------------|-------------------------|
-----------1------------1----L-|--L-------------0------L-|
--L----L--------3--1-----------|-------------------------|
-------------------------------|-------3------L----------|
-------------------------------|-------------------------|
-------------------------------|-------------------------|


  E  T T S. T S. S. T Q.     S T    Q.     S T H        T  
---------------------------------|------------------------|
--L--L--------0--2----0------L---|------------------------|
---------3-----------------------|--1------L--------------|
---------------------------------|-------------4--------L-|
---------------------------------|------------------------|
---------------------------------|------------------------|




                                         3                           
  T S. T S. S. T H        E     Q    T T Q    E  T S. T E  T T T. X  
---------2--4----5--------L--|--L----L---4----2--L-0----------------|
----2------------------------|--------------------------0--L--------|
-----------------------------|---------------------------------1--L-|
--L--------------------------|--------------------------------------|
-----------------------------|--------------------------------------|
-----------------------------|--------------------------------------|


     3                        3       3      3                3          
  S. T S. Q.     S T E.  T S. X    S. T E  T Q    E  T E  T T Q    T. X  
--------------------------------|---------------------------------------|
---------------------------4--L-|--L--L---------------------------------|
--L------------------3---L------|---------------------------------------|
-------2--1------L--------------|---------------------------------------|
--------------------------------|------------2----1--L-2--L---1---------|
--------------------------------|----------------------------------4--L-|










  3                3              3       3 3                            
  S E  E  T T E  T Q    E  T T S. S    S. T Q    E  T E  T T E  T S. E   
------------------------------------|-----------------------------------|
------------------------------------|-----------------------------------|
------------------------------------|-----------------------------------|
------------------------------------|-----------------------------------|
-------2--L---1--L-2----1--L---4----|-------2----1--L-2--L---1--L-------|
--L---------------------------------|-----------------------------4-----|


                3                            3                             3  
  T E  T E  T T Q    E  T S. E  T T. X    S. T E  T E  T T E  T T S. E  E  X  
---------------------------------------|-------------------------------------|
---------------------------------------|-------------------------------------|
---------------------------------------|-------------------------------------|
---------------------------------------|-------------------------------------|
----2--L-1--L---2----1--L-4-------2--L-|--L----1--L-2--L---1--L---------2--L-|
---------------------------------------|--------------------------4----------|


  3        3                                3                             3  
  T E  T T Q    E  T T S. E  E  T T T    E  X E  T E  T T S. E  E  T T S. T  
--------------------------------------|-------------------------------------|
--------------------------------------|-------------------------------------|
--------------------------------------|-------------------------------------|
--------------------------------------|-------------------------------------|
--L-1--L---2----1--L---4-----2--L---1-|--L----2--L-1--L---------2--L---1--L-|
--------------------------------------|-------------------4-----------------|


  3        3                                     3  
  S E  T T Q    S. T T T T T T T T T T T T T T T S  
---------------------------------------------------|
---------------------------------------------------|
-----------------------1---1---1---1---1---1-1---1-|
---------------------4-----------------------------|
--L-2--L---1----4----------------------------------|
---------------------------------------------------|




  3                                  3  
  T S S Q    T T T T T S T S S S S S S  
---------------------------------------|
--------0----L-------------------------|
--L-1----------------------------------|
---------------------------------------|
---------------------------------------|
---------------0---0---0-0-0-0-0-0-2-2-|


 





 3                                           3  
  T T T T T T T T S S T S S S S S S T T T S S X  
------------------------------------------------|
----------------------------------------------0-|
------------------------1-1-1---1---1-1---------|
----------------------4-------------------4-----|
------------------------------------------------|
--L-2-2---2---2---2-2---------------------------|


       3                               3  
  Q    T S T T T T T S S S S S S T S T X  
-----------------------------------------|
--L----L---------------------------------|
-----------------------------------------|
-----------------------------------------|
-----------------------------------------|
---------0-0---0---0-0-0-0-0-------------|


  3                                   3     
  T T T T T T S S S S S S S T T T S S Q     
--------------------4-2-0------------------|
------------------0-2-----4-2---------4----|
--------------1-3-------------1------------|
----------------------------------4--------|
-------------------------------------------|
-------------------------------------------|


     3                                       3  
  S. T S S T T T T T S S S S T S S S T T T T X  
-----------------------------------------------|
--L--L-----------------------------------------|
-----------------------------------------------|
-----------------------------------------------|
-----------------------------------------------|
-------0-0-0---0---0-0-0-0-2-2-2-2-2-2---2---2-|


 





 3                                  3  
  T T T S S S S S S T T T S S Q    T S  
---------------------------------------|
---------------------------------------|
--------1---1---1-1---1-------1----L---|
------4-------------------4------------|
---------------------------------------|
--L----------------------------------0-|


  3                                          3  
  T S S T T T T T S S S T S S S S T T T T S. X  
-----------------------------------------------|
-----------------------------------------------|
-----------------------------------------------|
-----------------------------------------------|
------------------------------------------2--L-|
--L-0-0-0-0---0---0-0--------------------------|


                     3              3       3                       3       3  
  S E  T S. T E  T T Q    S. E  T T T    E  X S. T E  T T E  T S. T Q    S. X  
--------------------------------------|---------------------------------------|
--------------------------0--0--L-----|-------0----2--L------------------0--L-|
--------------1--L---3--------------3-|--L--L-------------3--L------3---------|
----1--L-4----------------------------|------------------------4--------------|
--L-----------------------------------|---------------------------------------|
--------------------------------------|---------------------------------------|


                   3                                                        
  T. X S. T E  T T Q    S. T E  T E  T T    S. E  T T E  T S. T Q    S. S.  
-----------------------------0--L--------|---------------------------------|
--L--L-2----2--L---0--------------4--L---|--2-------------------0----L-----|
------------------------3----------------|-----3--L---1--L-0------------3--|
-----------------------------------------|---------------------------------|
-----------------------------------------|---------------------------------|
-----------------------------------------|---------------------------------|


  Q.     S. Q    S. T E  T    Q.     T Q    S. Q       Q    S Q    S. T Q    S  
---------------------------|------------------------|--------------------------|
------------2----L----0--L-|--L------L-0----L-------|---------2----L----0----L-|
--L------L-----------------|-------------------3----|--L----L------------------|
---------------------------|------------------------|--------------------------|
---------------------------|------------------------|--------------------------|
---------------------------|------------------------|--------------------------|









  E  S. T S T T T T T T T T T T T T T S S T E   
-----------------------------------------------|
--L--2--------------------------------------0--|
------------1---1---1-1---1---1---1---1-1------|
----------4------------------------------------|
-----------------------------------------------|
-----------------------------------------------|


  

E  T T T S S S S S T S S T T T T T S S T  
-------------------------------------------|
--L--L-------------------------------------|
-------------------------------------------|
-------------------------------------------|
-------------------------------------------|
---------0-0-0-0-0-0-0-0-2-2---2---2-2-2-2-|



  T S S S T S T T T T T T S T S S Q    T  
------------4-2---0----------------------|
----------0-2---------4---2-------0----L-|
------1-3-------------------1-1----------|
-----------------------------------------|
-----------------------------------------|
--L-2------------------------------------|


  T T T T S S S T S S S S T T T T T S S S S  
--------------------------------------------|
--------------------------------------------|
--------------------------------------------|
--------------------------------------------|
--------------------------------------------|
----0-0---0-0-0-0-0-0-2-2-2---2---2-2-2-2-4-|


  S. S S. T S S. S S. T S. T S. T T T T T  
------------------------------------------|
------------------------------------------|
--1----0----------------------------------|
--------------4----1----------------------|
------------------------4----2------------|
-----4------4----4--------------0---0---0-|


  T S S T S S S S S T T T T T S S S S T S  
------------------------------------------|
------------------------------------------|
------------------------------------------|
------------------------------------------|
------------------------------------1-2-4-|
----0-0-0-0-0-2-2-2-2---2-2---2-2-4-------|


  S S T T T T T S S S S S S T S T T T T T T T T  
------------------------------------------------|
------------------------------------------------|
------------------------------------1---3-----1-|
----------1-------1-2---1-2-4-2-4-----------4---|
--1-2-4-------2-4-----4-------------------------|
------------------------------------------------|






  T S S S S S S T T T T T S S T Q    T    E  T T S. T S. T S. Q.     S T  
----------------------0---3------------|---------------------------------|
------0-------0-2-4--------------------|---------1------------1------L---|
--L-3---0-1-3-----------------0-1----L-|--L--L--------3----1-------------|
----------------------------3----------|---------------------------------|
---------------------------------------|---------------------------------|
---------------------------------------|---------------------------------|


  Q.     S T H        T    T S. T S. T S. Q.     S T E  T  
------------------------|---------------------------------|
-------------0--------L-|--L------0----2--0------L--------|
------------------------|----3-----------------------1--L-|
--3------L--------------|---------------------------------|
------------------------|---------------------------------|
------------------------|---------------------------------|


  Q    T T H        S S. T    S. S. T H.           T  
---------------------------|--2--4----5------------L-|
----------------------2----|-------------------------|
--L----L-------------------|-------------------------|
-----------4--------L------|-------------------------|
---------------------------|-------------------------|
---------------------------|-------------------------|


       3                     3    3                                  3  
  E  T Q    E  T S. T E  T T Q    S    T. X Q.     S T E.  T T E.  T X  
--L----4----2--L-0------------------|----------------------------------|
----------------------0--L----------|--------------------------4---L---|
-----------------------------1------|------------------3---L-----------|
----------------------------------2-|--L--L-1------L-----------------3-|
------------------------------------|----------------------------------|
------------------------------------|----------------------------------|


                                    3    3                     3     
  T. X T T Q.     S S. T S. T S. S. X    H        T Q.     S T Q     
--------------------------------------|-----------------------------|
--------------------1------------1--L-|--L---------------------0----|
-------0---1------L------3----1-------|-----------------------------|
--L--L--------------------------------|-------------3------L--------|
--------------------------------------|-----------------------------|
--------------------------------------|-----------------------------|


         3                   3        3                   3  
  Q.     T S. T S. T S. Q    X    E.  T Q.     S T Q    S X  
-------------------------------|----------------------------|
--L------L------0----2--0----L-|--L---L---------------------|
-----------3-------------------|--------1------L------------|
-------------------------------|-------------------4----L-L-|
-------------------------------|----------------------------|
-------------------------------|----------------------------|



                                 3             3                  3  
  E.  T. X S. T S. T S. T Q.     X    H        T E  T E  T T S. T X  
----------------2----4----5------L-|--L--------L-4--L-2--L---0------|
-----------2-----------------------|------------------------------0-|
-----------------------------------|--------------------------------|
--L---L--L-------------------------|--------------------------------|
-----------------------------------|--------------------------------|
-----------------------------------|--------------------------------|


     3                         3       3                   3            
  E  T E  T T S. Q.     S T S. X    S. T T E.  T S. E  T T Q    E  T T  
---------------------------------|-------------------------------------|
--L--L---------------------------|---------4---L-----------------------|
-------1--L-----------------3--L-|--L--L-------------------------------|
--------------2--1------L--------|-------------------------------------|
---------------------------------|------------------2--L---1----2--L---|
---------------------------------|-------------------------------------|


               3                3     3                       
  E  T S. E  T Q    E  T E  T T E     E  S. H        Q    S   
-----------------------------------|------------------------||
-----------------------------------|------------------------||
-----------------------------------|------------------------||
-----------------------------------|------------------------||
--1--L---------2----1--L-2--L---1--|--L--4------------------||
-------4---------------------------|------------------------||

















GUITAR II
                                         3                 3  
     W                   T E  T T E  T T Q    E  T S. E  T T  
E||-------------------|----2--L---2--L---2----2--L-2-------2-|
B||-------------------|--------------------------------------|
G||-------------------|--------------------------------------|
D||-------------------|--------------------------------------|
A||-------------------|--------------------------------------|
E||-------------------|--------------------------------------|


     3                             3                3                         
  E  T E  T E  T T E  T S. E  T S. X    T. X E  T T Q    E  T S. E  T E  T T  
--L--L-2--L-2--L---2--L-4-------2--L-|--L--L-2--L---2----2--L-2-------2--L-2-|
-------------------------------------|---------------------------------------|
-------------------------------------|---------------------------------------|
-------------------------------------|---------------------------------------|
-------------------------------------|---------------------------------------|
-------------------------------------|---------------------------------------|


     3                             3    3          3                 3     
  E  X E  T T E  T T S. E  E  T S. T    S T E  T T Q    S. E  E  T T Q     
--L----2--L---2--L---4-----2--L-2--L-|--L---2--L---2----2-----2--L---2----|
-------------------------------------|------------------------------------|
-------------------------------------|------------------------------------|
-------------------------------------|------------------------------------|
-------------------------------------|------------------------------------|
-------------------------------------|------------------------------------|







                                          3                 3         3  
  E  T E  T T S. E  E  T T E  T S.    S T Q    S. E  E  T T Q    E  T X  
--2--L-2--L---4-----2--L---2--L-2--|--L---2----2-----2--L---2----2--L---|
-----------------------------------|------------------------------------|
-----------------------------------|------------------------------------|
-----------------------------------|------------------------------------|
-----------------------------------|------------------------------------|
-----------------------------------|------------------------------------|


  3                                                           3  
  T E  T S. T T T  T  T T  T T  T T  T T  T T  T T  T  S S  S X  
----2--L-4----9---11-11---11---11---11---11---11---11-11---14-L-|
----------------------------------------------------------------|
----------------------------------------------------------------|
----------------------------------------------------------------|
----------------------------------------------------------------|
----------------------------------------------------------------|


   





   3                                               3  
  E.  T  S  S  S  S  S  T  T T  T T  T T  S  S  T  S  S  
--L---L-------------------------------------------------|
--------------------------------------------------------|
--------------------------------------------------------|
------------------------------------11---11-11-11-11-11-|
--------14-14-14-14-14-14-14---14-----------------------|
--------------------------------------------------------|


  3                                             3  
  T  S  S T T  T T  T  T S.  S S  S  T S S  E.  S  
----------9---11---11-11----11---11-11-9---14---L-|
--------------------------------------------------|
--------------------------------------------------|
--L-11-11-----------------------------------------|
--------------------------------------------------|
--------------------------------------------------|


                                                                3  
  T. X  T T  S  S  S  S  T  S  T T  T T  T T  T  S  S  S  S  S  X  
--L--L---------------------------------------------------------11-|
------------------------------------------------------------------|
------------------------------------------------------------------|
------------------------------------------------------------------|
-------14---14-14-14-14-14-14-14---13---13---13-13-13-13-13-13----|
------------------------------------------------------------------|


                                                        3  
  T. X  T T  T  T T  T T  S  S  T  S  S S  Q    T  T T  S  
--L--L-14---16-23---23---21-19-18---------16----L---------|
----------------------------------16----------------------|
-------------------------------------18-------------------|
----------------------------------------------------------|
--------------------------------------------------14---14-|
----------------------------------------------------------|


  3                                                         3  
  T  S  S  T  S  S  S  T T  T T  T T  T  S  S  S  S S  S T  X  
----------------------------------------------------9-11---11-|
--------------------------------------------------------------|
--------------------------------------------------------------|
----------------------11---11---11---11-11-11-11-11-----------|
--L-14-14-14-14-14-14-----------------------------------------|
--------------------------------------------------------------|







  3                                         3  
  T S.  T T  S T  S S S  Q    T T T T T S S X  
--L----11---11---11-9---11----L---------------|
----------------------------------------------|
----------------------------------------------|
--------------------------------9---9---9-9-9-|
----------------------------------------------|
----------------------------------------------|


  3                                     3  
  T S S S S S T T T T T S S S E  T E  T X  
-----------------------------------7--L---|
------------------------------7--L--------|
------------------------------------------|
--L-9-9-9-8-8-8---8-8---8-8-8-------------|
------------------------------------------|
------------------------------------------|


  3                        3                
  T  S. E  T T  E  T T  S. Q     E  T T  S  
----11-11--L---11--L---16-16----16--L---16-|
-------------------------------------------|
-------------------------------------------|
-------------------------------------------|
-------------------------------------------|
-------------------------------------------|


             3                             3  
  T T  E  T  Q     S.T  E  T T  E  T  S.T  T  
--L---16--L-14---------15--L---16--L-18---18-|
------------------14-------------------------|
---------------------------------------------|
---------------------------------------------|
---------------------------------------------|
---------------------------------------------|







     3                     3                                              
  E  T  E  T  S.T  E  T T  Q     S.T  S.   S  E  T T  S. Q    S.  Q    S  
--L--L-16--L-14---19--L---18----16---15-|--L------------16----L--14----L-|
----------------------------------------|----17--L---16------------------|
----------------------------------------|--------------------------------|
----------------------------------------|--------------------------------|
----------------------------------------|--------------------------------|
----------------------------------------|--------------------------------|





  Q    T  Q    S.  Q.        E.   Q    S.  Q.     S.  
--L------18----L--16------|--L---16----L--14------L--|
--------------------------|--------------------------|
--------------------------|--------------------------|
--------------------------|--------------------------|
--------------------------|--------------------------|
--------------------------|--------------------------|


  S. T  Q    S.  Q.     S T  S  
--L----18----L--16------L---18-|
-------------------------------|
-------------------------------|
-------------------------------|
-------------------------------|
-------------------------------|


  T  T T  T T  T T  T T  T  T T  T T  T T  T T  S S  Q    T  T  
--L-------------------------------------------------14----L----|
---------16---16---16---16-16---16---16---16---16--------------|
----18---------------------------------------------------------|
---------------------------------------------------------------|
------------------------------------------------------------14-|
---------------------------------------------------------------|


  T  T  S  T T  T T  T T  T  S  S  S  S  S  S  S  T  T T  T T  T T  
---------------------------------------------------------11---14---|
-------------------------------------------------------------------|
-------------------------------------------------------------------|
-------------------------------11-11-11-11-11-11-11-11-------------|
--L-14-14-14---14---14---14-14-------------------------------------|
-------------------------------------------------------------------|


   S  T  S  S  S  S  S  T S.  Q    T  T  S  S  T  
--16-23-23-21-19-18----------14----L-------------|
--------------------16-16------------------------|
-------------------------------------------------|
-------------------------------------------------|
-------------------------------------14-14-14-14-|
-------------------------------------------------|





  T  S  T T  T T  T  S  S  S  S  S  T  S  S S  S.T T  S  
----------------------------------------------11-----11-|
--------------------------------------------------------|
--------------------------------------------8------8----|
--------------------11-11-11-11-11-11-11-11-------------|
--L-14-14---14---14-------------------------------------|
--------------------------------------------------------|


  T T S S. T S S. S. T S. T T S S S S S  
--L-----9------6--4----2----------------|
----------------------------0-0-0-0-0-0-|
------8------8--------------------------|
----------------------------------------|
----------------------------------------|
----------------------------------------|


  T T T T T T T S S S T S S S T T  T T  T T T  S  S  T  
----------------------------7-9---11---12---9-11-12-14-|
--0---0-2---2---2-2-2-2-2-2----------------------------|
-------------------------------------------------------|
-------------------------------------------------------|
-------------------------------------------------------|
-------------------------------------------------------|


  T  S  S  T  S  T T  T T  T T  T  S  S  S  S  S  S  S  T  T T  
--L-11-12-14-16------14---16---18----------14-------14-16------|
----------------17-------------------16-17----16-17-------16---|
----------------------------------16---------------------------|
---------------------------------------------------------------|
---------------------------------------------------------------|
---------------------------------------------------------------|


                           3                     3  
   T T  T T  S  T  S  S  S X S.  T T  S  Q    S. T  
-------15---16-18-19-21-23-------------------------|
--17---------------------------------20-21----L--L-|
--------------------------------22-----------------|
---------------------------------------------------|
---------------------------------------------------|
---------------------------------------------------|


  










  3                             3           3                3   
  S X T  S. S.T  S.T  Q.     S  S.T    Q    S X T  H        S  E   
--------20-18---16---20------L------|-------------19--------L-18--|
--L-L--------------------------18-L-|--L----L-L-------------------|
------------------------------------|-----------------------------|
------------------------------------|-----------------------------|
------------------------------------|-----------------------------|
------------------------------------|-----------------------------|


  3                             3        3                     3  
  X T  S.T  S. Q.     S T  Q    T    E.  X  H        S  S.T  S.T  
--L---19---21-19------L-----------|--------------------21---26---|
--------------------------21----L-|--L---L-19--------L-----------|
----------------------------------|------------------------------|
----------------------------------|------------------------------|
----------------------------------|------------------------------|
----------------------------------|------------------------------|


  3                     3    3            3                           3  
  X  S. H.           E  T    X T  E  T T  Q     S. E  T T  E  T T  S. S  
----28-29------------L--L-|--L---28--L---26----24-----------------------|
--------------------------|-----------------------24--L---21--L---------|
--------------------------|---------------------------------------21-20-|
--------------------------|---------------------------------------------|
--------------------------|---------------------------------------------|
--------------------------|---------------------------------------------|


                                     3                                    3  
  Q.     T. X  E.  T  E.  T T  T  S  X    Q.     T. X T  S.T  S. S.T  E.  X  
--------------18---L-23---L------------|----------------20---18-16---20---L-|
---------------------------------20-21-|--L------L--L-----------------------|
--L------L--L-----------------22-------|------------------------------------|
---------------------------------------|------------------------------------|
---------------------------------------|------------------------------------|
---------------------------------------|------------------------------------|


                             3         3                         3  
  E.  T. X T  Q.     S  Q    S    Q    T T  S.T  S. S.T  Q    S. X  
--L---L--L-------------19----L-|--L----L---18---19-21---19----L--L-|
-------------18------L---------|-----------------------------------|
-------------------------------|-----------------------------------|
-------------------------------|-----------------------------------|
-------------------------------|-----------------------------------|
-------------------------------|-----------------------------------|


  3                        3       3                          3  
  E  T  Q.     S  Q.     S X    S. T T  S.T  S. S.T  H        X  
--L--------------------------|---------21---26-28---29--------L-|
-------21------L-19------L-L-|--L--L----------------------------|
-----------------------------|----------------------------------|
-----------------------------|----------------------------------|
-----------------------------|----------------------------------|
-----------------------------|----------------------------------|


         3                        3                                     
  Q.     T  E  T T  E  T T  S. E  X    T  E  T T  S.T  Q.     S  E.  T  
--L------L-28--L---26--L---24-------|---------------------------18---L-|
------------------------------24--L-|--L-21--L-------------------------|
------------------------------------|------------21---20------L--------|
------------------------------------|----------------------------------|
------------------------------------|----------------------------------|
------------------------------------|----------------------------------|


            3                              
  T  E  E   Q     E  T  E  T T  E  T  T.X  
----23------------------------------------|
------------------------------------------|
------------------------------------------|
------------------------------------------|
-----------21----21--L-21--L---21--L-21-L-|
------------------------------------------|


  3                     3             3  
  S E  T  E  T  E  T T  Q     E  T  S.S  
----------------------------------------|
----------------------------------------|
----------------------------------------|
-----------------------------------18---|
--L------21--L-21--L---21----21--L------|
----------------------------------------|


     3  3                                 
  S. T  Q     E  T  E  T T  E  T T  S.S.  
-----------------------------------------|
-----------------------------------------|
-----------------------------------------|
-------16----16--L-16--L---16--L---16----|
-----------------------------------------|
-----------------------------------------|


                   3                        
  T  E  T  E  T T  Q     E  T T  S.E   T.X  
-------------------------------------------|
-------------------------------------------|
--------------------------------13----11-L-|
----16--L-16--L---16----16--L--------------|
-------------------------------------------|
-------------------------------------------|









     3    3                            3  
  S. X T  Q     E  T  E  T T  S.E   E  X  
-----------------------------------------|
-----------------------------------------|
--L------11----11--L-11--L---11----11--L-|
-----------------------------------------|
-----------------------------------------|
-----------------------------------------|


  3                  3                      
  T T  E  T  E  T T  Q    S. E   E  T T  T  
-------------------------------------------|
--------------------------9----------------|
--L---11--L-11--L---11----------11--L---11-|
-------------------------------------------|
-------------------------------------------|
-------------------------------------------|


     3                                3  
  E  X  E  T T  E  T  S.E   E  T T  S.T  
----------------------------------------|
----------------------------------------|
--L----11--L---11--L-11----11--L---11-L-|
----------------------------------------|
----------------------------------------|
----------------------------------------|


  3          3                                             3  
  S T  E  T  Q    S. T S  T T  T  T T  T T  T T  T T  T T  X  
-----------------------9-11---11-11---11---11---11---11---11-|
------------------9------------------------------------------|
--L---11--L-11-----------------------------------------------|
-------------------------------------------------------------|
-------------------------------------------------------------|
-------------------------------------------------------------|


  3                                                  3  
  T  S S  Q    T  T T  T T  T T  T T  S  T  S  S  S  S  
--L-11---14----L---------------------------------------|
-------------------------------------------------------|
-------------------------------------------------------|
-------------------------------------------------11-11-|
-----------------14---14---14---14---14-14-14-14-------|
-------------------------------------------------------|


 







 3                                                          3  
  T  S  T T  T  T T  T T  S T T  S  T  S S  S S  T T  T S S  X  
----------------------------9---11-11-11---11---11---11-9---14-|
---------------------------------------------------------------|
---------------------------------------------------------------|
--L-11-11---11-11---11---11------------------------------------|
---------------------------------------------------------------|
---------------------------------------------------------------|


       3                                            3  
  Q    T  S  T T  T T  T T  T  S  S  S  S  S  S  S  X  
--L----L----------------------------------------------|
------------------------------------------------------|
------------------------------------------------------|
------------------------------------------------------|
---------14-14---14---14---14-14-14-14-13-13-13-13-13-|
------------------------------------------------------|


  3                                                       3     
  T  T T  T T  T T  T T  T  S  S  S  S  S  T T  T T  T S  Q     
-------------------11---14-16-23-23-21-19-18-------------16----|
-----------------------------------------------16--------------|
----------------------------------------------------18---------|
---------------------------------------------------------------|
--L-13---13---13-----------------------------------------------|
---------------------------------------------------------------|


     3                                                         3  
  S. T  S  S  T T  T T  T T  T  S  S  S  S  S  T  S  T T  T T  X  
--L--L-----------------------------------------------------------|
-----------------------------------------------------------------|
-----------------------------------------------------------------|
-------------------------------------11-11-11-11-11-11---11---11-|
-------14-14-14---14---14---14-14-14-----------------------------|
-----------------------------------------------------------------|


  3                                        3  
  T T T T  S T  S S  S  S S  T S S  Q    T S  
------9---11---11---11-11---11-9---11----L---|
---------------------------------------------|
---------------------------------------------|
--L----------------------------------------9-|
---------------------------------------------|
---------------------------------------------|








  3                                            3  
  T S S T T T T T T T S S S S T S S T T T T S. X  
-------------------------------------------------|
--------------------------------------------7--L-|
-------------------------------------------------|
--L-9-9-9---9---9-9---9-8-8-8-8-8-8-8---8--------|
-------------------------------------------------|
-------------------------------------------------|


                       3                3  
  S E  T  S.T  E  T T  Q     S.T  E  T  T  
----7--L-11---11--L---11----16---16--L-16-|
--L---------------------------------------|
------------------------------------------|
------------------------------------------|
------------------------------------------|
------------------------------------------|


     3                          3       3  
  E  X T  S. E  T T  E  T  S.T  Q     S.X  
--L--L---16-16--L---14--L------15----16-L-|
--------------------------14--------------|
------------------------------------------|
------------------------------------------|
------------------------------------------|
------------------------------------------|


                     3                        
  T. X T  S. E  T T  Q     S.T  E  T  E  T T  
--L--L---18-18--L---16----14---19--L-18--L---|
---------------------------------------------|
---------------------------------------------|
---------------------------------------------|
---------------------------------------------|
---------------------------------------------|


        3                         3               3                3  
   S.T  Q     E  T  S.T  Q    S.  E     Q.     S. X  Q    S. T  E  T  
--16---15---------------16----L--14--|--L------L--L-18----L----16--L-|
-------------17--L-16----------------|-------------------------------|
-------------------------------------|-------------------------------|
-------------------------------------|-------------------------------|
-------------------------------------|-------------------------------|
-------------------------------------|-------------------------------|









         3                              3                        
  Q.     S  Q    S.  E.  T. X    Q    S X  Q    S. T  Q    T. X  
--L------L-16----L--14---L--L-|--L----L---18----L----16----L--L-|
------------------------------|---------------------------------|
------------------------------|---------------------------------|
------------------------------|---------------------------------|
------------------------------|---------------------------------|
------------------------------|---------------------------------|


     3                                                     3  
  E  X  S.T  S  T T  T T  T  T T  T T  T T  T T  T  S S  S.T  
--L----18-----------------------------------------------14-L-|
---------------16---16---16-16---16---16---16---16-16--------|
------------18-----------------------------------------------|
-------------------------------------------------------------|
-------------------------------------------------------------|
-------------------------------------------------------------|


  3                                                         3  
  Q    T  T  T T  S  S  S  T  S  S  S  T T  T T  T T  T  S  T  
--L-----------------------------------------------------------|
--------------------------------------------------------------|
--------------------------------------------------------------|
-----------------------------------11-11---11---11---11-11-11-|
---------14-14---14-14-14-14-14-14----------------------------|
--------------------------------------------------------------|


  3                                                3  
  S  S  S  S  T  S  T T  T T  T T  S  T  S S  Q    T  
-------11-14-16-23-23---21---19---18---------14----L-|
-------------------------------------16-16-----------|
-----------------------------------------------------|
--L-11-----------------------------------------------|
-----------------------------------------------------|
-----------------------------------------------------|


  3                                                                   
  X  T T  T T  T T  S  S  T  S  S  S  S  T T  T T  T  T T  S  S T. X  
--L------------------------------------------------------------------|
---------------------------------------------------------------------|
----------------------------------------------------------------8--L-|
----------------------------------11-11-11---11---11-11---11-11------|
----14---14---14---14-14-14-14-14------------------------------------|
---------------------------------------------------------------------|


 






 3                                       3  
  X  S.S  S.T S S. S S. T S. T S. T T T T T  
----11---11-----9----6----4----2------------|
----------------------------------0---0---0-|
-------8------8----8------------------------|
--------------------------------------------|
--------------------------------------------|
--------------------------------------------|


  3                                                  
  X T T T T S S S S S S T T T T T T T S S T  S  T.X  
----------------------------------------7-9-11-12-L-|
--L---0---0-0-0-0-2-2-2-2---2-2---2---2-------------|
----------------------------------------------------|
----------------------------------------------------|
----------------------------------------------------|
----------------------------------------------------|


  3                                                                3  
  X S  S  T T  T T  T T  T  S  S  S  S  T  S  S  T T  T T  T T  T  T  
----9-11-12---14---11---12-14-16----14-16-18--------------14---------|
---------------------------------17-------------16---17--------16-17-|
---------------------------------------------16----------------------|
---------------------------------------------------------------------|
---------------------------------------------------------------------|
---------------------------------------------------------------------|


  3                                                  3  
  S  S  S  S  S  S  T  T T  T T  T T  T E   S  S  E  T  
----14-16-------15-16-18---19---21---23----------------|
--L-------16-17-------------------------------20-21--L-|
-------------------------------------------22----------|
-------------------------------------------------------|
-------------------------------------------------------|
-------------------------------------------------------|


       3                 3              3                           
  Q    S  S.T  S.T  S.T  H           S. X  Q.     S T  Q.     T. X  
---------20---18---16---20--------|--L--L-------------19------L--L-|
--L----L--------------------------|-------18------L----------------|
----------------------------------|--------------------------------|
----------------------------------|--------------------------------|
----------------------------------|--------------------------------|
----------------------------------|--------------------------------|


    






 3                                         3                3  
  E  X  S.T  S.T  S.T  Q.     S  T.X    Q.     X T  H        S  T  
--L----18---19---21---19------L------|-------------------------21-|
--------------------------------21-L-|--L----------19--------L----|
-------------------------------------|----------------------------|
-------------------------------------|----------------------------|
-------------------------------------|----------------------------|
-------------------------------------|----------------------------|


    3                          3         3                     3       3  
  S X T  S.T  S.T  H        E  T    Q    X  E  T T  E  T  S.T  Q     S.X  
--L-L---26---28---29--------L--L-|--L----L-28--L---26--L-24--------------|
---------------------------------|----------------------------24----21-L-|
---------------------------------|---------------------------------------|
---------------------------------|---------------------------------------|
---------------------------------|---------------------------------------|
---------------------------------|---------------------------------------|


                                   3    3                                 3  
  T. X  S.T  Q.     S T  E.  T  E  X    E  T  T  S  Q.     S T  S.T  S. S.X  
------------------------18---L-23--L-|--L----------------------20---18-16---|
--L--L-------------------------------|----------20-21------L----------------|
-------21---20------L----------------|-------22-----------------------------|
-------------------------------------|--------------------------------------|
-------------------------------------|--------------------------------------|
-------------------------------------|--------------------------------------|


  3                          3             3                  3  
  T  Q.     S T  Q.     S T  S    H        T  S.T  S. S.T  E  X  
----20------L---------------19-|--L--------L-18---19-21---19--L-|
----------------18------L------|--------------------------------|
-------------------------------|--------------------------------|
-------------------------------|--------------------------------|
-------------------------------|--------------------------------|
-------------------------------|--------------------------------|


                               3            3                    3  
  Q    T. X T  Q.     S T  E.  X    Q    S. T  S.T  S. S.T  Q    S  
--L----L--L----------------------|------------21---26-28---29----L-|
--------------21------L---19---L-|--L----L--L----------------------|
---------------------------------|---------------------------------|
---------------------------------|---------------------------------|
---------------------------------|---------------------------------|
---------------------------------|---------------------------------|


              3    3                                                  
  H        S. T T  Q     E  T  T    S T  E  T T  E  T  S.T  Q.     S  
--L--------L--L---28----26--L-24-|--L--------------------------------|
---------------------------------|------24--L---21--L----------------|
---------------------------------|--------------------21---20------L-|
---------------------------------|-----------------------------------|
---------------------------------|-----------------------------------|
---------------------------------|-----------------------------------|


   E.  T T  E  S.  E  T T  E  T T  E  T  
--18---L---23---------------------------|
----------------------------------------|
----------------------------------------|
----------------------------------------|
------------------21--L---21--L---21--L-|
----------------------------------------|


  3                3                     3    3                         
  X  E  T  S.E  T  Q     E  T  E  T T  S X    E  T  S.H        Q    T   
-------------------------------------------|--------------------------||
-------------------------------------------|--------------------------||
-------------------------------------------|--------------------------||
-------------------------------------------|-------18-----------------||
----21--L-21------21----21--L-21--L---21-L-|--L-----------------------||
-------------------------------------------|--------------------------||



Guitar III

     S S. T T S. T S S. T S S. S. T S. T T T  
E||------------------------------------------|
B||------------------------------------------|
G||-----------0------------------------------|
D||----6-------------4------1----------------|
A||----------------------------4----2--------|
E||--4------4------4------4--------------2-4-|


  T T T T T T T T T T T T T T T T T T T T T T T T T T T S T T T  
----------------------------------------------------------------|
----------------------------------------------------------------|
----------------------------------------------------------------|
----------------------------------------------------------------|
----------------------------------------------------------------|
----4---4---4---4---4---4---4-4---4---4---4---4-4---4---2-4---4-|


  T T T T T T T T T T T T T T T T T T T T T T T T T T T T T T T T  
------------------------------------------------------------------|
------------------------------------------------------------------|
------------------------------1---------1-------1-----------------|
------------------------------------------------------------------|
------------------------------------------------------------------|
----4-4---4---4---4---4---4-----4---4-------4-------2-4---4---4---|


  T T T T T T T T T T T T T T T T T T T T T T S T T T T T T T T  
----------------------------------------------------------------|
----------------------------------------------------------------|
----------------------------------------------------------------|
----------------------------------------------------------------|
----------------------------------------------------------------|
--4---4---4---4-4---4---4---4---4---4-4---4---2-4---4---4---4-4-|



 
 T T T T T S S T S S T T T T T T T T T T T T T T T T T T  
----------------------------------------------------------|
----------------------------------------------------------|
--------------1---0---------------------------------------|
----------------------4-------1---------------------------|
----------------------------------------------------------|
----4---4---4---4---4-----4-------2-4---4---4---4---4---4-|


 


 T T T T T T T T T T T T T T T T T S T T T T T T T T T T T T T  
----------------------------------------------------------------|
----------------------------------------------------------------|
----------------------------------------------------------------|
----------------------------------------------------------------|
----------------------------------------------------------------|
----4-4---4---4---4---4-4---4---4---2-4---4---4---4-4---4---4---|


  T T T T T T T T T T T T T T T T T T T T T T T T T T T T T T T T  
------------------------------------------------------------------|
------------------------------------------------------------------|
--------1-----------1-------1-------------------------------------|
------------------------------------------------------------------|
------------------------------------------------------------------|
--4---4-----4---4-------4-------2-4---4---4---4---4---4-4---4---4-|


  T T T T T T T T T T T T S T T T T T T T T T T T T T S T S  
------------------------------------------------------------|
------------------------------------------------------------|
--------------------------------------------------------1---|
------------------------------------------------------------|
------------------------------------------------------------|
----4---4---4-4---4---4---2-4---4---4-4---4---4---4---4---4-|


  S S S S T T T T T T T S S S T S S S T T T T  
----------------------------------------------|
----------------------------------------------|
--0---------------------------------1-----0---|
------4---1-----------------------------------|
----------------------------------------------|
----4---4-----2-4---4---4-4-4-4-4-4---4-------|


  T S S S T T S S T S T T T T T T T S S S S T  
----------------------------------------------|
----------------------------------------------|
----------------------------------------------|
----4---1-------2-----2---------------4-----4-|
----------------------------------------------|
--4---4---0---0---0-0-----0---0---2-2---2-2---|


  T S S T T T T T T T S T S S S S S S T T T S  
----------------------------------------------|
----------------------------------------------|
--------------------------------1---0---------|
--L---------------------------------------4---|
----------------------------------------------|
----2-2-2-4---4---4---4-4-4-4-4---4---4-----4-|



  S T T S T S S S S T T T T T S S S S S T T  
--------------------------------------------|
--------------------------------------------|
--------------------------------------------|
--1-------2-----2-----------1---------------|
--------------------------------4---2---1---|
----0---0---0-0---0-0---------------------2-|


  T S T T T T T T T S S S S S S T T T T T T T T T T  
----------------------------------------------------|
----------------------------------------------------|
--------------------------1---0---------------------|
----------------------------------4-------1---------|
----------------------------------------------------|
--L-4-4---4---4---4-4-4-4---4---4-----4-------0---0-|


  T T S S S S S T T T T T T T S S S T S S S  
--------------------------------------------|
--------------------------------------------|
--------------------------------------------|
----2-----2-----------4---------4-----------|
--------------------------------------------|
--L---0-0---0-0-2---2-----2---2---2-2-2-4-4-|


  T T T T T T T S S S S S T S T T T T T T T S S T  
--------------------------------------------------|
--------------------------------------------------|
--------------------1---0-------------------------|
----------------------------4-----1---------2-----|
--------------------------------------------------|
--4---4---4---4-4-4---4---4---4-------0---0---0-0-|


  T S S S S T T T T T T T S T S S S S S T T T  
----------------------------------------------|
--------------------------------------------0-|
----------------------------------------------|
----2-------1-L-------------------------------|
------------------4-------2---1-2-2-2-2-2-----|
--L---0-0-------------------------------------|


  T T S S S S T S S S T T T T T S S S S S  
------------------------------------------|
------------------------------------------|
------------1-----1-----------------------|
--------------------------------2-----2---|
----2-2-----------------------------------|
--------4-4---4-4---4-4---0---0---0-0---0-|


  S T S T T T T T T S T S S S S S S T T T T T T  
------------------------------------------------|
------------------------------------------------|
--------------------------------------0---------|
--------4-----------4---------------------------|
------------------------------------------------|
--0-2-2-----2---2-----2-2-3-3-3-3-3-3-----3---4-|









  T S S T S S S S T T T T T T T S S S S T S  
--------------------------------------------|
--------------------------------------------|
------------1-------------------------------|
----------------4---------------------------|
--------------------------------------------|
----4-4-4-4---2---0---0---0-0---0-0-0-0-----|


  S T T T T T T T S S S S S S T T T T T T T S T T  
--------------------------------------------------|
--------------------------------------------------|
------------------------1-------------------------|
------------------------------1-------------------|
----------------------------------------4-------2-|
--------3---3---3-3-4-4---4-4---4---4-------4-4---|


  T S S S S S T T T T T S S S T S S S S T  
------------------------------------------|
------------------------------------------|
------------------1-------------1-----3---|
--------------------------1---------------|
--L-----1-2-------------------------------|
----4-4-----4-4-----4---4---4-4---4-4---4-|


  T T T T S S S S S T S S T T T T T T T S S S  
----------------------------------------------|
----------------------------------------------|
--------4-------1-----0-----------------------|
------------------------------4---------1-----|
----------------------------------------------|
----4-----4-4-4---4-4---4-4-------4---4---4-4-|


           3                     3   
  S S E  T Q    E  T T E  T T S. E   
------------------------------------|
------------------------------------|
------------------------------------|
------------------------------------|
--4---------------------------------|
----4-0--L-0----0--L---0--L---0--2--|


  3                                                 
  X T T T T S S S S S S T T T T T T T S S T S T. X  
---------------------------------------------------|
---------------------------------------------------|
----------------------------1-----0----------------|
----------------------------------------4---1------|
---------------------------------------------------|
--L---2---4-4-4-4-4-4-4-4-----4-------4---4---0--L-|

  3                                           3  
  X S S S T T T T T S S S S T S S S T T T T T T  
------------------------------------------------|
------------------------------------------------|
------------------------------------------------|
------2-------2-----------4-----4---------------|
------------------------------------------------|
----0---0-0-------0-0-2-2---2-2---2-2---2---4-4-|


  3                                     3  
  S S S S S S T S T T T T S S T S S S S T  
------------------------------------------|
------------------------------------------|
----------------1-----0-------------------|
----------------------------4---1-----2---|
------------------------------------------|
--L-4-4-4-4-4-4---4-------4---4---0-0---0-|


  3                                          
  S S T T T T T S S S T S S S S S S. S T. X  
--------------------------------------------|
--------------------------------------------|
----------------------------------1----0--L-|
------2-------------4-----4-----------------|
--------------------------------------------|
--L-0---0---0---2-2---2-2---2-2-4----4------|


  3                                   3  
  S T S S. S S. T S. T S. S S S S S T T  
----------------------------------------|
----------------------------------------|
--L-------------------------------------|
--------4----1----------------2-----2---|
------------------4----2----------------|
------4----4--------------0-0---0-0---0-|


  3                                               3  
  X T T T T T T T T S S S S S S T T T T T T T S S T  
----------------------------------------------------|
----------------------------------------------------|
------------------------------------1---------1-----|
------------------4-----4---------------------------|
----------------------------------------------------|
--L---0---2---2-----2-2---2-2-4-4-----4---4-----4-4-|


  3                                           3  
  X S S S S T T T T T T T S S S S T S S T T T T  
------------------------------------------------|
------------------------------------------------|
------1---0-------------------------------------|
----------------4-------1-----2-----2-----------|
------------------------------------------------|
--L-4---4---4-------4-----0-0---0-0---0-0-------|


  3                                           3  
  X T T T S S S S S S T T T T T T T S S T S S T  
------------------------------------------------|
------------------------------------------------|
------------------------------------------------|
--------1-----1---------3-----------3---------3-|
------------------------------------------------|
--------------------1-1-----1---1-----1-1-1-1---|


  
  3                                                 
  S S S T T T T T T T S S S T S S S T T T T T T. X  
---------------------------------------------------|
---------------------------------------------------|
----------------------------------------------0--L-|
--L-----3---------------3-----3---------3----------|
---------------------------------------------------|
----1-1-----1-1---1---1---1-1---1-1-1-------1------|


  3                                             
  X S S S S S T S T T T T T T T S S S S S T. X  
-----------------------------------------------|
-----------------------------------------------|
------1---3-----1---------1-----------1--------|
-----------------------------------------------|
-----------------------------------------------|
----1---1---4-4---4---4-------4-4-4-4---4-4--L-|


  3                                           3  
  X S T T T T T S S T S S S S S T T T T T S S T  
------------------------------------------------|
------------------------------------------------|
----1-------------1-----1-------1-------0-------|
--------------------------------------------4---|
------------------------------------------------|
------4-4---4---4---4-4---4-4-4-----4-----4---4-|


  3                                           
  S S T S S S T T T T T S S S S S S T S T. X  
---------------------------------------------|
---------------------------------------------|
---------------------------------------------|
----1-----4-------4-----------4-----4--------|
---------------------------------------------|
--L---2-2---2-2-------2-2-2-2---2-2---2-2--L-|


  3                                           3  
  X T T T T S T S S S S S S T T T T T S S S T T  
------------------------------------------------|
------------------------------------------------|
------------------------------1-------2---1-----|
------------4-----4-------4---------------------|
------------------------------------------------|
----2---2-----2-2---2-2-2---2-----2-----2---0-0-|


  3                                         3  
  S S S S T T T T T T T S S S S T S S T T S T  
----------------------------------------------|
----------------------------------------------|
----------------------------------------------|
----2-----2---------------2-----2-----------1-|
------------------------2-----2---2-----------|
--L---0-0-----0---0-0-------0-------0---------|


  



  3                                             
  X S S S S S S S T T T T T T T S T S S S T. X  
-----------------------------------------------|
-----------------------------------------------|
------------------0---------0------------------|
--L-----1-------------------------------3------|
-----------------------------------------------|
--------------3-3---3---3-------3-3-1-1---1--L-|


  3                                           3  
  X S S S T T T T T S S T S S S S S T T T T T T  
------------------------------------------------|
------------------------------------------------|
------------------------------------------------|
------3-------------3-----3---------3---------3-|
------------------------------------------------|
----1---1-1-1---1-----1-1---1-1-1-1-----1---1---|


  3                                     3  
  S S S S T S S S T T T T T S S S S S S T  
------------------------------------------|
------------------------------------------|
--------------0---1-------3-----1-----1---|
--L-------3-------------------------------|
------------------------------------------|
----1-1-1---1---1-----1-----4-4---4-4---4-|


  3                                                 
  X S T T T T T T S T S S S S S S T T T T T S T. X  
---------------------------------------------------|
---------------------------------------------------|
--------------1-------1---------1-------1----------|
---------------------------------------------------|
---------------------------------------------------|
--L-4-4---4-------4-4---4-4-4-4---4-4-------4-4--L-|


  3                                       3  
  X S T S S S S T T T T T S S S S S T S S T  
--------------------------------------------|
--------------------------------------------|
------1---0---------------------------------|
--------------4-----1-------4-----4---------|
--------------------------------------------|
----4---4---4---4-------2-2---2-2---2-2-2-2-|


  3                                                   
  X T T T T T T S S S S S S T T T T T T T S T S T. X  
-----------------------------------------------------|
-----------------------------------------------------|
-----------------------------------------------------|
------4---------4---------4-------4-----------4------|
-----------------------------------------------------|
--L-------2---2---2-2-2-2---2-2-------2---2-2---2--L-|


 






 3                                         3  
  X S S S S T T T T T S S S T S S S S T T T T  
----------------------------------------------|
----------------------------------------------|
----1---2---1---------------------------------|
----------------------2-----2---------2-------|
------------------------------------2---------|
------2---2-----0-0-----0-0---0-0-0-------0---|


  3                                         3  
  X T S S S S S T S S T T T T T T T S S S S T  
----------------------------------------------|
----------------------------------------------|
--------------------------------------0-----0-|
------2---------1-L---1-----------------------|
----2---2-------------------------------------|
----------0-----------------------3-3---3-3---|


  3                                                           3  
  S S T T T T T T T T T T T T T T T T T T T T T T T T T T T T T  
----------------------------------------------------------------|
----------------------------------------------------------------|
--L-------------------------------------------------------------|
----------------------------------------------------------------|
----------------------------------------------------------------|
----3-3-2---4---4---4---4---4-4---4---4---4---4---4---4-4---4---|


  3                                                             3  
  X T T S T T T T T T T T T T T T T T T T T T T T T T T T T T T T  
------------------------------------------------------------------|
------------------------------------------------------------------|
------------------------------------------1-----------1-------1---|
------------------------------------------------------------------|
------------------------------------------------------------------|
----4---2-4---4-4---4---4---4---4---4-4-------4---4-------4-----2-|


  3                                                           3  
  S T T T T T T T T T T T T T T T T T T T T T T T T T T T T S T  
----------------------------------------------------------------|
----------------------------------------------------------------|
----------------------------------------------------------------|
----------------------------------------------------------------|
----------------------------------------------------------------|
--L-4---4---4---4-4---4---4---4---4---4---4---4-4---4---4---2-4-|


  3                                                   3  
  X T T T T T T T T T T T T T T T S S S S T S S T T T T  
--------------------------------------------------------|
--------------------------------------------------------|
--------------------------------1---0-------------------|
----------------------------------------4---1-----------|
--------------------------------------------------------|
--L-4---4---4---4---4---4---4-----4---4---4---2-4---4---|


  3                                                               3  
  X T T T T T T T T T T T T T T T T T T T T T T T T T T T T T T T T  
--------------------------------------------------------------------|
--------------------------------------------------------------------|
--------------------------------------------------------------------|
--------------------------------------------------------------------|
--------------------------------------------------------------------|
----4---4---4-4---4---4---4---4---4-4---4---4---4---2---4-4---4---4-|


  3                                                             3  
  X T T T T T T T T T T T T T T T T T T T T T S T T T T T T T T T  
------------------------------------------------------------------|
------------------------------------------------------------------|
------------------------1-----------1-----1-----------------------|
------------------------------------------------------------------|
------------------------------------------------------------------|
--L---4---4---4---4-4-------4---4-------4-----2-4---4---4---4---4-|


  3                                                               3  
  X T T T T T T T T T T T T T T T T T T T T T T T T T T T T T T T T  
--------------------------------------------------------------------|
--------------------------------------------------------------------|
--------------------------------------------------------------------|
--------------------------------------------------------------------|
--------------------------------------------------------------------|
--L-4---4---4---4---4---4-4---4---4---4---2-4---4---4---4---4---4---|


  3                                               3  
  X T T T S T T T T T T T S S S S S S S T T T T T T  
----------------------------------------------------|
----------------------------------------------------|
----------1-----0-----------------------------------|
------------------------4---1-----------------------|
----------------------------------------------------|
----4---4---4-------4-----4---2-4-4-4-4-4-4---4---4-|


  3                                               
  X T S T S S S S S T T T T T T T S S S T S T. X  
-------------------------------------------------|
-------------------------------------------------|
------1---0--------------------------------------|
--------------4---1---------2-------2------------|
-------------------------------------------------|
--L-----4---4---4---0---0-----0---0---0-0-2-2--L-|


  3                                                   3  
  X S T T T T T T T S T T S S S T S T T T T T T T T T T  
--------------------------------------------------------|
--------------------------------------------------------|
------------------------------------------------1-----0-|
----4---------4-----------------------------------------|
--------------------------------------------------------|
------2---2-------2-2-2---4-4-4-4-4-4---4---4-------4---|


  3                                       3  
  S S S S S S T T T T T T T S S T S S S S T  
--------------------------------------------|
--------------------------------------------|
--L-----------------------------------------|
------4---1-----2-----------2-------1-------|
----------------------------------------4---|
----4---4---0-0-----0---0-----0-0-L---------|


  


3                                                   
  X T T T T T T T T S S S T S S T T T T T S S S T. X  
-----------------------------------------------------|
-----------------------------------------------------|
----------------------------------------1---0--------|
------------------------------------------------4--L-|
------2-----1----------------------------------------|
----------------2---4-4-4-4-4-4-4---4-----4---4------|


  3                                             3  
  X S S S T T T T T T T T T T S S S S S S T T T T  
--------------------------------------------------|
--------------------------------------------------|
--------------------------------------------------|
------1-----2-----------2-----------4-----4-------|
--------------------------------------------------|
----4---0-0-----0---0-------0-0-2-2---2-2-----2-2-|


  3                                           3  
  X T T T S S T S S S S T T T T T T T S S S S T  
------------------------------------------------|
------------------------------------------------|
----------------------------1-------0-----------|
----------------------------------------4---1---|
------------------------------------------------|
--L---2---4-4-4-4-4-4-4-4-------4-----4---4---0-|


  3                                                   
  X S S T T T T T T T S S S S S S T T T T T T T T. X  
-----------------------------------------------------|
-----------------------------------------------------|
-----------------------------------------------------|
------2---------2---------1--------------------------|
------------------------------4---2-L---1---2---2--L-|
--L-0---0---0-------0-0------------------------------|


  3                                       3  
  X S T S S S S S T T T T T S S S S T S S T  
--------------------------------------------|
----------0---------------------------------|
----------------------1-------1-------------|
----------------------------------------2---|
----2-2-2---2-2-----------------------------|
----------------4-4-----4---4---4-4-0-0---0-|


  3                                                 
  S T T T T T S S S S S S T S T T T T T T T S T. X  
---------------------------------------------------|
---------------------------------------------------|
---------------------------------------------------|
--------2-----------4-----4------------------------|
---------------------------------------------------|
--L-0-------0-0-2-2---2-2---2-2---3---3---3-3-3--L-|


 





 3                                       3  
  X S S S S S T T T T T S S T S S S S S T T  
--------------------------------------------|
--------------------------------------------|
------0-----------------1-------------------|
----------------------------4---------------|
--------------------------------------------|
----3---3-4-4-4-4---4-----2---0-0-0-0-0-0---|


  3                                         3  
  X T T T T T S S S T S S S S T T T S S S S T  
----------------------------------------------|
----------------------------------------------|
----------------------------------1-----------|
----------------------------------------1-----|
----------------------------------------------|
----0---0-----------3-3-3-3-4-4-----4-4---4-4-|


  3                                         3  
  S S T S S T T T T S T S S S S S S T T T T T  
----------------------------------------------|
----------------------------------------------|
----------------------------1-------------1---|
----------------------------------1-----------|
----4-----2---------1-2-----------------------|
--L---4-4---4---4-------4-4---4-4---4-4-------|


  3                                       3  
  X S S S T S S S S S T T T T T S S S S T T  
--------------------------------------------|
--------------------------------------------|
--------3-----4-------1---------0-----------|
--------------------------------------4-----|
--------------------------------------------|
----4-4---4-4---4-4-4-----4-4-----4-4---4-4-|


  3                                     3  
  S S S T T T T T E  T T E  T T E  T E  T  
------------------------------------------|
------------------------------------------|
------------------------------------------|
----1-------------------------------------|
------------4-----------------------------|
--L---4-4-------4-0--L---0--L---0--L-0--L-|


  3                                         3  
  T S. T S. T T S S T T T T T T T S S S S S S  
----------------------------------------------|
----------------------------------------------|
--------------------------------------1---0---|
----------------------------------------------|
----------------------------------------------|
--L-0----2----2-4-4-4---4---4---4-4-4---4---4-|


  3                                                 3  
  T T T T T T T T T T S T S S S S S T T T T T T T S X  
------------------------------------------------------|
------------------------------------------------------|
------------------------------------------------------|
----4-----1-----------2-----2-----------4---------4---|
------------------------------------------------------|
--L---4-------0---0-----0-0---0-0-2-2-----2---2-----2-|


                                               3  
  T. X S T S S S T T T T T T T S S S S S T S T X  
-------------------------------------------------|
-------------------------------------------------|
---------------------------------1---0-----------|
-----------------------------------------4---1---|
-------------------------------------------------|
--L--L-2-2-4-4-4-4---4---4---4-4---4---4---4-----|


  3                                             3  
  T T T T T T S S S S S S S T T T T T T T S T S X  
--------------------------------------------------|
--------------------------------------------------|
------------------------------------------------1-|
------------2-----2---------4---------4-----------|
--------------------------------------------------|
----0---0-----0-0---0-0-2-2---2---2-------2-2-4---|


  3                                       3  
  E  T S S. T S S. S S. T S. S. T T T T T X  
--------------------------------------------|
--------------------------------------------|
--L------0----------------------------------|
----------------4----1--------------------2-|
--------------------------4--2--------------|
-------4------4----4--------------0---0-----|


  3                                           3  
  T T T S S S S S T S T T T T T T T T T S S S S  
------------------------------------------------|
------------------------------------------------|
--------------------------------------------1---|
--L-------2---------4---------4-----------------|
------------------------------------------------|
------0-0---0-0-2-2---2---2-------2---2-4-4---4-|


  3                                               3  
  T S S T T T T T T T S S T S S S S T T T T T T T X  
----------------------------------------------------|
----------------------------------------------------|
------1-----------1-----0---------------------------|
----------------------------4---1-------2---------2-|
----------------------------------------------------|
--L-4---4-4---4-------4---4---4---0-0-------0-0-----|


                                             3  
  T. X S S S T S S T T T T T T T S S S S S S X  
-----------------------------------------------|
-----------------------------------------------|
-----------------------------------------------|
--L--L---------1-------1-------------3-----3---|
-----------------------------------------------|
-------0-0-----------------------1-1---1-1---1-|




  3                                             3  
  T T T T T T T T T T S S S S S S T T T T T S S S  
--------------------------------------------------|
--------------------------------------------------|
--------------------------------------------------|
----------------3-------3---------3---------3-----|
--------------------------------------------------|
--L-1---1---1-------1-1---1-1-1-1-----1-1-----1-1-|


  3                                           3  
  T T S S S S T T T T T T T S S S S T S S T T X  
------------------------------------------------|
------------------------------------------------|
----------0---1-------3-------1-----1-----------|
------3-----------------------------------------|
------------------------------------------------|
--L-1---1---1-----1-------4-4---4-4---4-4-4---4-|


  3                                         3  
  T T T T T S S S S S S T S T T T T S S T S S  
----------------------------------------------|
----------------------------------------------|
------1-------1---------1-------1---------1---|
----------------------------------------------|
----------------------------------------------|
--L-------4-4---4-4-4-4---4-4-------4-4-4---4-|


  3                                       3  
  T S S S S T T T S S S S T S S S S T T T X  
--------------------------------------------|
--------------------------------------------|
----0---------------------------------------|
--------4---1-------4-----4---------4-------|
--------------------------------------------|
--L---4---4---2---2---2-2---2-2-2-2-----2---|


  3                                       3  
  T T S S S S S T S S T T T T T S S S S S X  
--------------------------------------------|
--------------------------------------------|
--------------------------------------1---2-|
------4---------4-----4-----------4---------|
--------------------------------------------|
----2---2-2-2-2---2-2-----2---2-2---2---2---|


                                                     3  
  T. X S T T T T T T T T T T S S S S S S T T T T T T X  
-------------------------------------------------------|
-------------------------------------------------------|
--L--L---1---------------------------------------------|
-------------------2---------2---------2-------2-------|
-------------------------------------2-------2-----2---|
-------2---0---0-------0---0---0-0-0-----0-------------|


 




 3                                       3  
  T S S T S S S S T T T T T S S S S S T S X  
--------------------------------------------|
--------------------------------------------|
------------------------------0-----0-------|
----------1-----1---------------------------|
--------------------------------------------|
----0---------------------3-3---3-3---3-3-1-|


                                                 3  
  T. X S T T T T T S S S S S S T T T T T T T S S X  
---------------------------------------------------|
---------------------------------------------------|
---------------------------------------------------|
---------3---------3---------3-------3-------------|
---------------------------------------------------|
--L--L-1-----1---1---1-1-1-1---1-1-------1---1-1-1-|


  3                                       3  
  T S S S S S T T T T T S S S S T S S S T X  
--------------------------------------------|
--------------------------------------------|
--------------------------0---1---3-----1---|
----3-----3---------3-----------------------|
--------------------------------------------|
--L---1-1---1-1---1-----1---1---1---4-4-----|


  3                                           3  
  T T T T S S S S S S T S T T T T T T T S S S X  
------------------------------------------------|
------------------------------------------------|
----------1---------1-----1---------------1-----|
------------------------------------------------|
------------------------------------------------|
----4---4---4-4-4-4---4-4-----4---4---4-4---4-4-|


                                               3  
  T. X S S S T T T T T S S T S S S S S T T T T X  
-------------------------------------------------|
-------------------------------------------------|
-------1-------1-------0-------------------------|
---------------------------4---1-----4---------4-|
-------------------------------------------------|
--L--L---4-4-4-----4-----4---4---2-2---2---2-----|


  3                                     3  
  T S S S S T S S S T T T T T S S S S S S  
------------------------------------------|
------------------------------------------|
------------------------------------------|
--L---------4-----4-------------4-----4---|
------------------------------------------|
----2-2-2-2---2-2---2---2---2-2---2-2---2-|


  3                                             3  
  T T S T T T T T T S T S S S S S S T T T T T S X  
--------------------------------------------------|
--------------------------------------------------|
----------------1-----2---1-----------------------|
--------4-----------------------2-----2-----------|
--------------------------------------------------|
--L-2-2-----2-------2---2---0-0---0-0-----0---0-0-|


                                         3  
  T. X S T S S S S S T T T S S S S S T S S  
-------------------------------------------|
-------------------------------------------|
-------------------------------------------|
---------2-----2-----------1-----1---------|
-------2-----2---2-------------------------|
--L--L-----0-------0-------------------3-3-|


  3                                                       3  
  T T T T T T S S S S T T T T T T T T T T T T T T T T T T X  
------------------------------------------------------------|
------------------------------------------------------------|
----0---------0---------------------------------------------|
------------------------------------------------------------|
------------------------------------------------------------|
--L-----3---3---3-3-2-4---4---4---4-4---4---4---4---4-4---4-|


  3                                                               3  
  T T T T T T T T T T T T T T T T T T T T T T T T T T T T T T T T X  
--------------------------------------------------------------------|
--------------------------------------------------------------------|
----------------------------------------------------------1---------|
--------------------------------------------------------------------|
--------------------------------------------------------------------|
--L---4---4---4---4---2---4-4---4---4---4---4-4---4---4-------4---4-|





  3                                      
  T T T T T T T S T T T T T H        S   
---------------------------------------||
---------------------------------------||
------1-----1--------------------------||
---------------------------------------||
---------------------------------------||
--L-------4-----2-4---4---4------------||



GUITAR IV



S S. T T S. T S S. T S S. S. T S. S.  
E||----4------3------2--------------------|
B||-------------------------4--2----0-----|
G||----------------1------1---------------|
D||--6------6-----------------------------|
A||---------------------------------------|
E||---------------------------------------|


                  3                 3       3                             3  
  T E  T T E  T T Q    E  T S. E  T T    E  T E  T E  T T E  T S. E  T S. X  
--------------------------------------|-------------------------------------|
----0--L----------0-----------------0-|--L--L------0--L--------2-------0--L-|
-----------3--L--------3--L-1---------|-------3--L--------3--L--------------|
--------------------------------------|-------------------------------------|
--------------------------------------|-------------------------------------|
--------------------------------------|-------------------------------------|


              3                 3    3       3                             3  
  T. X E  T T Q    E  T S. E  T Q    T    E  X E  T T E  T T S. E  E  T S. T  
---------------------------------------|-------------------------------------|
--L--L--------0-----------------0------|-------0--L----------2-----0--L------|
-------3--L--------3--L-1------------3-|--L--L--------3--L--------------3--L-|
---------------------------------------|-------------------------------------|
---------------------------------------|-------------------------------------|
---------------------------------------|-------------------------------------|


  3   3                        3                                         
  S T Q    E  T T S. E  E  T T Q       E  T E  T T S. E  E  T T E  T S.  
------------------------------------|-----------------------------------|
------0-----------------0--L--------|--0--L--------2-----0--L--------0--|
--L--------3--L---1------------3----|-------3--L----------------3--L----|
------------------------------------|-----------------------------------|
------------------------------------|-----------------------------------|
------------------------------------|-----------------------------------|


      3                 3         3  
  S T Q    S. E  E  T T Q    E  T X  
------------------------------------|
--L--------------0--L--------0--L---|
------3----1------------3-----------|
------------------------------------|
------------------------------------|
------------------------------------|


  3                                                 3  
  T E  T S. T T T T T T T T T T T T T T T T T S S S X  
--------------2---4-4---4---4---4---4---4---4-4---7-L-|
---------2--------------------------------------------|
----3--L----------------------------------------------|
------------------------------------------------------|
------------------------------------------------------|
------------------------------------------------------|


      3                               3  
  E.  T S S S S S T T T T T S S S T S S  
--L---L---------------------------------|
----------------------------------------|
----------------------------------------|
----------------------------4-4-4-4-4-4-|
--------7-7-7-7-7-7-7---7---------------|
----------------------------------------|


  3                                   3  
  T S S T T T T T S S S S S T S S E.  S  
--------2---4---4-4---4---4-4-2---7---L-|
----------------------------------------|
----------------------------------------|
--L-4-4---------------------------------|
----------------------------------------|
----------------------------------------|


                                             3  
  T. X S S S S S T T T T T T T S T S S S S S X  
--L--L---------------------------------------4-|
-----------------------------------------------|
-----------------------------------------------|
-----------------------------------------------|
-------7-7-7-7-7-7-7---7---6---6-6-6-6-6-6-6---|
-----------------------------------------------|


                                                3  
  T. X T T  T  T T  S  S  S T S S S  Q    T T T S  
--L--L-6----9-16---14-12-11-9-------11----L-------|
-----------12-----------------9-7-----------------|
--------------------------------------------------|
--------------------------------------------------|
--------------------------------------------7---7-|
--------------------------------------------------|


  3                                       3  
  T S S T S S S T T T T T S S S S S S S T X  
------------------------------------2-4---4-|
--------------------------------------------|
--------------------------------------------|
----------------4---4---4-4-4-4-4-4---------|
--L-7-7-7-7-7-7-----------------------------|
--------------------------------------------|


 

 3                                 3    3                                   3  
  T S. S S T S S S Q    T T T S S S X    T S S S S S T T T S S S S E  T E  T X  
--L----4-4---4-2---4----L-------------|----------------------------------------|
--------------------------------------|----------------------------0--L-4--L---|
--------------------------------------|----------------------------------------|
--------------------------2---2-2-2-2-|--L-2-2-2-1-1-1---1-1-1-1-1-------------|
--------------------------------------|----------------------------------------|
--------------------------------------|----------------------------------------|


  3                     3                         3                          3  
  T S. E  T T E  T T S. Q    E  T T S    T T E  T Q    S. T E  T T E  T S. T T  
----2--4--L---6--L---7--7----6--L---7-|--L---9--L-6---------6--L---7--L-9----9-|
--------------------------------------|----------------7-----------------------|
--------------------------------------|----------------------------------------|
--------------------------------------|----------------------------------------|
--------------------------------------|----------------------------------------|
--------------------------------------|----------------------------------------|


     3              3                  3         3                         
  E  X E  T T S. T  Q     E  T S. T  S.X    T. X Q    S. T Q    S. Q    S  
--L--L-7--L---6----12----11--L-9---------|-----------------7----L--6----L-|
------------------------------------11-L-|--L--L-9----8-------------------|
-----------------------------------------|--------------------------------|
-----------------------------------------|--------------------------------|
-----------------------------------------|--------------------------------|
-----------------------------------------|--------------------------------|


  Q    T Q    S. Q.        E.  Q    S. Q.     S.    S. T Q    S. Q.     S T S  
--L------9----L--7------|--L---7----L--6------L--|--L----9----L--7------L---9-|
------------------------|------------------------|----------------------------|
------------------------|------------------------|----------------------------|
------------------------|------------------------|----------------------------|
------------------------|------------------------|----------------------------|
------------------------|------------------------|----------------------------|


  T T T T T T T T T T T T T T T T T T S T Q    T T T  
--L---------------------------------------7----L-----|
----7---9---9---9---9-9---9---9---9---9--------------|
-----------------------------------------------------|
-----------------------------------------------------|
---------------------------------------------------7-|
-----------------------------------------------------|


  T T S T T T T T T T S S S S S S S T T T T T S  
------------------------------------------4---6-|
------------------------------------------------|
------------------------------------------------|
------------------------4-4-4-4-4-4-4-4---------|
--L-7-7-7---7---7---7-7-------------------------|
------------------------------------------------|


  S  T  S  S  S S S S S Q    T T S S T  
--7-16-14-12-11-9-------7----L---------|
----14------------9-9------------------|
---------------------------------------|
---------------------------------------|
-------------------------------7-7-7-7-|
---------------------------------------|


  T T T T T T S S S S S S T S S S S. T T S  
----------------------------------4------3-|
-------------------------------------------|
--------------------------------1------1---|
----------------4-4-4-4-4-4-4-4------------|
--L-7---7---7-7----------------------------|
-------------------------------------------|


  T T S S. T S S. S. T S. T T S S S S S  
--L-----2-------------------------------|
---------------4--2----0----------------|
------1------1--------------------------|
----------------------------2-2-2-2-2-2-|
----------------------------------------|
----------------------------------------|


  T T T T T S S S S T S S S T T T T T S S S T  
----------------------------------------------|
--------------------------------0---2---0-2-4-|
--------------------------1-3---------3-------|
--2---2-4---4-4-4-4-4-4-4---------------------|
----------------------------------------------|
----------------------------------------------|


  T S S T S T T T T T T T S S S S S S S T T T  
----------0---------0---2-0-2-4-6---4-6-7-----|
--L-0-2-4---2---4-----------------7-------8---|
----------------------------------------------|
----------------------------------------------|
----------------------------------------------|
----------------------------------------------|


  T T S S T  S  S  S  S  S  Q.     S  T    S T  S.T  S. Q.     S.  E.  T  
------6-7-9-11-12-15--------------------|--------------------------------|
--9----------------------------------13-|--L---11------13------L---------|
------------------------12-13------L----|-----------13------------10---L-|
---------------------15-----------------|--------------------------------|
----------------------------------------|--------------------------------|
----------------------------------------|--------------------------------|


  E.  T T  H        S  S.T  S    T T S. T Q.     S Q.      
------------------------------|------9----7------L--------|
----------12--------L-11---12-|--L-----------------9------|
--L---L-----------------------|---------------------------|
------------------------------|---------------------------|
------------------------------|---------------------------|
------------------------------|---------------------------|


  S T H        S S. T  S.T  S.   T  H.           E  T  S  
-----------------9----14---16-|----17------------L--L-16-|
--L---7--------L--------------|--------------------------|
------------------------------|--------------------------|
------------------------------|--------------------------|
------------------------------|--------------------------|
------------------------------|--------------------------|


  S.  E  T T  S.T  E  T  E  T T  S. E  T    Q    T T  E.  T T  E.  T  S S S.  
--L--14--L---12--------------------------|--------------------11---L---------|
------------------12--L------------------|-----------11---L-------------8-9--|
------------------------13--L------------|---------------------------10------|
--------------------------------14-13--L-|--L----L---------------------------|
-----------------------------------------|-----------------------------------|
-----------------------------------------|-----------------------------------|


  Q    S. S. T S. T S. Q    S    E  T Q.     S T Q.      
----------8----6----4--8----L-|--L---------------7------|
--L----L----------------------|-------6------L----------|
------------------------------|-------------------------|
------------------------------|-------------------------|
------------------------------|-------------------------|
------------------------------|-------------------------|


  E.  S. T S. T S. Q.     S T    Q.     S T H        T  
--L---6----7----9--7------L---|------------------------|
------------------------------|--9------L---7--------L-|
------------------------------|------------------------|
------------------------------|------------------------|
------------------------------|------------------------|
------------------------------|------------------------|


                                           3                             
  T S. T  S.T  S. H        E     Q    T T  Q     E  T  S.T  E  T T  T.X  
----9----14---16-17--------L--|--L----L---16----14--L-12----------------|
--L---------------------------|----------------------------12--L--------|
------------------------------|------------------------------------13-L-|
------------------------------|-----------------------------------------|
------------------------------|-----------------------------------------|
------------------------------|-----------------------------------------|


     3                            3       3    3                3          
  S. T  S.T  Q.     S  E.  T T  S X    E  T E  Q    E  T E  T T Q    T. X  
-------------------------------11-L-|--L--L-------------------------------|
----------------------11---L--------|-------------------------------------|
--L---------------------------------|-------------------------------------|
-------14---13------L---------------|----------9----8--L-9--L---8----6--L-|
------------------------------------|-------------------------------------|
------------------------------------|-------------------------------------|


  3                  3            3       3 3                              
  S E  T E  T E  T T Q    E  T S. S    S. T Q    E  T E  T T E  T T S. S.  
------------------------------------|-------------------------------------|
---------0--L--------0---------2----|-------0---------0--L----------------|
--------------3--L--------3--L------|------------3--L--------3--L---1-----|
--L---------------------------------|-------------------------------------|
------------------------------------|-------------------------------------|
------------------------------------|-------------------------------------|







                3                            3                             3  
  T E  T E  T T Q    E  T T S. E  T. X    S. T E  T T E  T E  T T S. E  E  X  
---------------------------------------|-------------------------------------|
----0--L--------0-----------2-----0--L-|--L-----------0--L--------------0--L-|
---------3--L--------3--L--------------|-------3--L--------3--L---1----------|
---------------------------------------|-------------------------------------|
---------------------------------------|-------------------------------------|
---------------------------------------|-------------------------------------|


  3        3                                3                             3  
  T T E  T Q    E  T T S. E  E  T T T    E  X E  T T E  T S. E  E  T T S. T  
--------------------------------------|-------------------------------------|
--L--------0-----------2-----0--L-----|-------0--L--------------0--L--------|
------3--L------3--L----------------3-|--L-----------3--L-1------------3--L-|
--------------------------------------|-------------------------------------|
--------------------------------------|-------------------------------------|
--------------------------------------|-------------------------------------|


  3        3                                     3  
  S T E  T Q    S. T S T T T T T T T T T T T T T X  
---------------------2-4---4-4---4---4---4---4---4-|
------0--L------2----------------------------------|
--L--------3---------------------------------------|
---------------------------------------------------|
---------------------------------------------------|
---------------------------------------------------|


  3                                  3  
  T S S Q    T T T T T S S S T S S S S  
--L-4---7----L-------------------------|
---------------------------------------|
---------------------------------------|
-----------------------------------4-4-|
---------------7---7---7-7-7-7-7-7-----|
---------------------------------------|


  3                                         3  
  T S T T T T T S S S S T S S S S T T T S S X  
--------------------2-4-4-4---4---4---4-2---7-|
----------------------------------------------|
----------------------------------------------|
--L-4-4---4-4---4-4---------------------------|
----------------------------------------------|
----------------------------------------------|


       3                               3  
  Q    T S T T T T T T T S S S S S S S X  
--L----L---------------------------------|
-----------------------------------------|
-----------------------------------------|
-----------------------------------------|
---------7-7---7---7---7-7-7-7-6-6-6-6-6-|
-----------------------------------------|





  3                                          3     
  T T T T T S S T S  S  S  S  S T T T T S T  Q     
--------------4-6-7-16-14-12-11-9-----------11----|
--------------------14--------------9---7---------|
--------------------------------------------------|
--------------------------------------------------|
--L-6---6---6-------------------------------------|
--------------------------------------------------|


     3                                       3  
  S. T S S T T T T T S S S S S S T S T T T T X  
--L--L-----------------------------------------|
-----------------------------------------------|
-----------------------------------------------|
---------------------------4-4-4-4-4-4---4---4-|
-------7-7-7---7---7-7-7-7---------------------|
-----------------------------------------------|


  3                                  3  
  T T T T S T S S S S S T S S Q    T S  
------2---4---4---4-4---4-2---4----L---|
---------------------------------------|
---------------------------------------|
--L----------------------------------2-|
---------------------------------------|
---------------------------------------|


  3                                          3  
  T S S T T T T T S S S S S T S S T T T T S. X  
-----------------------------------------------|
------------------------------------------0--L-|
-----------------------------------------------|
--L-2-2-2---2---2-2-2-1-1-1-1-1-1-1---1--------|
-----------------------------------------------|
-----------------------------------------------|


                     3              3       3                       3       3  
  S E  T S. T E  T T Q    S. T E  T T    E  X T S. E  T T E  T S. T Q    S. X  
---------2----4--L---6----7----7--L-6-|--L--L---7--9--L---6--L------6----7--L-|
--L-4--L------------------------------|------------------------7--------------|
--------------------------------------|---------------------------------------|
--------------------------------------|---------------------------------------|
--------------------------------------|---------------------------------------|
--------------------------------------|---------------------------------------|


                   3                                                           
  T. X T S. E  T T Q    S. T  E  T  E  T T    S.  E  T T E  T T S. Q    S. S.  
--L--L---9--9--L---7----6----12--L-11--L---|--9--------------------7----L--6--|
-------------------------------------------|-----11--L---9--L---8-------------|
-------------------------------------------|----------------------------------|
-------------------------------------------|----------------------------------|
-------------------------------------------|----------------------------------|
-------------------------------------------|----------------------------------|


 



 Q.     S. T Q    S. E  T    Q.     T Q    S. Q       Q    S T Q    S. Q    S  
--L------L----9----L--7--L-|--L------L-7----L--6----|--L----L---9----L--7----L-|
---------------------------|------------------------|--------------------------|
---------------------------|------------------------|--------------------------|
---------------------------|------------------------|--------------------------|
---------------------------|------------------------|--------------------------|
---------------------------|------------------------|--------------------------|


  E  S. T S T T T T T T T T T T T T T S S S S.  
--L--9--------------------------------------7--|
----------7-9---9---9---9---9-9---9---9-9------|
-----------------------------------------------|
-----------------------------------------------|
-----------------------------------------------|
-----------------------------------------------|


  E.  T S S S S S S S T T T T T T T S T T  
--L---------------------------------------|
------------------------------------------|
------------------------------------------|
----------------------4-4---4---4---4-4-4-|
------7-7-7-7-7-7-7-7---------------------|
------------------------------------------|


  T S S S T T  S  T T  T  T T S S S T Q    T  
------4-6-7-9-16-14---12-11---9-------7----L-|
--------------------------------9-9----------|
---------------------------------------------|
--L-4----------------------------------------|
---------------------------------------------|
---------------------------------------------|


  T T T T S S S S S T S S T T T T T T T S S S  
----------------------------------------------|
----------------------------------------------|
--------------------------------------------1-|
----------------------4-4-4---4---4---4-4-4---|
----7---7-7-7-7-7-7-7-------------------------|
----------------------------------------------|


  S. T S S. S S. T S S. S. T S. T T T T T  
--4------3----2---------------------------|
---------------------4--2----0------------|
-------1----1------1----------------------|
----------------------------------2---2-2-|
------------------------------------------|
------------------------------------------|


  T S S S S T S S S T T T T T S S S S S T  
------------------------------------------|
--------------------------------------0-2-|
----------------------------------1-3-----|
----2-2-2-2-2-4-4-4-4---4---4-4-4---------|
------------------------------------------|
------------------------------------------|


  


T T S T T T T T T T S S S S S S S T T T T T S  
------------------------0-----0-2-0-2-4---6-----|
--L---0-2---4---0---2-4---2-4-----------------7-|
----3-------------------------------------------|
------------------------------------------------|
------------------------------------------------|
------------------------------------------------|


  S T S S S S S T T  T T  T  S  S  S  Q       E.   S.T  S.T  S.T  Q.     S  
--4-6-7-----6-7-9---11---12-15-------------|-------------------------------|
--------8-9--------------------------------|------13---11--------13------L-|
----------------------------------12-13----|--L-------------13-------------|
-------------------------------15----------|-------------------------------|
-------------------------------------------|-------------------------------|
-------------------------------------------|-------------------------------|


   Q.     S T  H        T    T T  S. S.T S. T Q.     S E  T  
--------------------------|--------------9----7------L------|
--------------12--------L-|--L---11-12-----------------9--L-|
--10------L---------------|---------------------------------|
--------------------------|---------------------------------|
--------------------------|---------------------------------|
--------------------------|---------------------------------|


  Q    T T H        S S. T     S.T  S. H.           T  
----------------------9----|--14---16-17------------L-|
--L----L---7--------L------|--------------------------|
---------------------------|--------------------------|
---------------------------|--------------------------|
---------------------------|--------------------------|
---------------------------|--------------------------|


        3                        3     3  
  E  T  Q     E  T T  S. E  T T  Q     S  
--L----16----14--L---12------------------|
------------------------12--L------------|
--------------------------------13-------|
--------------------------------------14-|
-----------------------------------------|
-----------------------------------------|


                                    3                                       3  
  T. X T  Q.     S T  E.  T  E.  T  X    T. X T T Q.     S T S. S. T S. T S X  
----------------------------11---L----|----------------------8--6----4----8-L-|
---------------------11---L-----------|-------8---9------L--------------------|
-----------------------------------10-|--L--L---------------------------------|
--L--L---13------L--------------------|---------------------------------------|
--------------------------------------|---------------------------------------|
--------------------------------------|---------------------------------------|


       




   3            3              3                    3  
  Q    S. T T Q.     S Q       Q.     T T S. S. T S. T E.  S  
--L----L--L------------7----|--L------L---6--7----9----7---L-|
--------------6------L------|--------------------------------|
----------------------------|--------------------------------|
----------------------------|--------------------------------|
----------------------------|--------------------------------|
----------------------------|--------------------------------|


      3                   3                                    3  
  E.  T Q.     S T Q    S X    E.  T. X T S.  S.T  S.T  Q.     X  
--L---L---------------------|-------------9--14---16---17------L-|
--------9------L---7----L-L-|--L---L--L--------------------------|
----------------------------|------------------------------------|
----------------------------|------------------------------------|
----------------------------|------------------------------------|
----------------------------|------------------------------------|


           3                     3       3                           3  
  H        T  E  T T  E  T  S.T  X    E  T  E  T T  S.T  Q.     S  S.X  
--L--------L-16--L---14--L-12------|-----------------------------------|
--------------------------------12-|--L--L------------------------11-L-|
-----------------------------------|-------13--L-----------------------|
-----------------------------------|---------------14---13------L------|
-----------------------------------|-----------------------------------|
-----------------------------------|-----------------------------------|


     3                  3                           3                3   
  S. T T  E.  T E  E  T Q    E  T T    E  T T S. E  Q    E  T T E  T E   
---------11---L---------------------|-----------------------------------|
--L--L------------------------------|---------------0-----------0--L----|
------------------------------------|--------------------3--L--------3--|
-------------------9--L-8----9--L---|--8--L---6-------------------------|
------------------------------------|-----------------------------------|
------------------------------------|-----------------------------------|


  3                       
  E  S. H        Q    S   
------------------------||
-----2------------------||
--L---------------------||
------------------------||
------------------------||
------------------------||




GUITAR V


    H.           E.  S    H.           S. E  T    H.           T E.  T  
E||---------------------|-----------------------|-----------------------|
B||-------------------4-|--L------------L--2--L-|--L--------------4---L-|
G||---------------------|-----------------------|-----------------------|
D||---------------------|-----------------------|-----------------------|
A||---------------------|-----------------------|-----------------------|
E||---------------------|-----------------------|-----------------------|


  H        E.  Q    S    H        S. T Q.        H        T Q.     S.  
----------------------|-----------------------|-----------------------|
--L--------L---2----L-|--L--------L----4------|--L--------L-2------L--|
----------------------|-----------------------|-----------------------|
----------------------|-----------------------|-----------------------|
----------------------|-----------------------|-----------------------|
----------------------|-----------------------|-----------------------|


  Q.     S T H        T    Q.     H        E   
------------------------|---------------------|
--L------L---4--------L-|--L------2--------L--|
------------------------|---------------------|
------------------------|---------------------|
------------------------|---------------------|
------------------------|---------------------|


            3                             3      3              3       3  
  Q    T E  Q    E  T T E  T T T. X    S. T S. T Q    E  T S. T Q    E  T  
------------------------------------|------------0------------------------|
--L----L----0-----------0--L--------|-----------------4--L-2----0---------|
-----------------3--L----------3--L-|--L----1------------------------3--L-|
------------------------------------|-------------------------------------|
------------------------------------|-------------------------------------|
------------------------------------|-------------------------------------|


  3         3                       3  
  X S. E  T Q    E  T T E  T E  T T S  
--------------------------------------|
----0-------0-----------0--L----------|
--L--------------3--L--------3--L---1-|
--------------------------------------|
--------------------------------------|
--------------------------------------|


        3                  3                  
  T. X  Q     E  T T S. T  Q    E  T S. T. X  
-------12----11--L---9-----------------------|
--------------------------11----9--L-8-------|
--L--L---------------------------------------|
---------------------------------------------|
---------------------------------------------|
---------------------------------------------|


     3      3                        3                       3                  
  S. X E  T Q    E  T T E  T T S. S. X    S E  T T S. T E  T Q    S. E  T T. X  
---------------------------------------|---------------------------------------|
----------------------------------5--L-|--L-4--L---2----0--L------0-------0--L-|
---------------------------------------|---------------------3-----------------|
-------9--L-8----9--L---8--L---6-------|---------------------------------------|
---------------------------------------|---------------------------------------|
---------------------------------------|---------------------------------------|


   




     3 3                      3                         3         3         
  S. X Q    E  T T E  T T S.  Q     S.   S T S. T  E  T Q    S. T H         
-----------------------------12----11-|--L---9-----------------------------|
--L---------0--L----------------------|-----------11--L-9----8-------------|
-------3-----------3--L---1-----------|------------------------------------|
--------------------------------------|---------------------------9--------|
--------------------------------------|------------------------------------|
--------------------------------------|------------------------------------|


     3                     3    3                          3  
  S. X T Q.     S T Q.     T    S E.  T T E.  T Q.     S T T  
-----------------------------|-------------------------------|
-----------------------------|-------------------------------|
-----------------------------|------------6---L-8------L---8-|
--L--L---9------L---9------L-|--L-9---L----------------------|
-----------------------------|-------------------------------|
-----------------------------|-------------------------------|


         3                  3           3                                  3  
  Q    S X S. T Q.     S S. T    Q    S X T S S T S S S  T T T T T T  T  S T  
------------------------------|-------------7-6-4-9-7-6-11---9---7---12-11-9-|
----------------5------L-4--L-|--L----L-L------------------------------------|
--L----L-L-6------------------|----------------------------------------------|
------------------------------|----------------------------------------------|
------------------------------|----------------------------------------------|
------------------------------|----------------------------------------------|


  3                                               3  
  S  S  S  S T S T T T T T T T T T  S S S  S  S S T  
--L-14-12-11-9-7-6---4---9---7---6-11-9-7-12-11-9-7-|
----------------------------------------------------|
----------------------------------------------------|
----------------------------------------------------|
----------------------------------------------------|
----------------------------------------------------|


  3                                                         
  X T T T T T T T T S T S S S  S T T T T  T  T T S  S  T.X  
--L-6---7---9---7---6-4-9-7-6-11-9---7---12-11---9-14-12-L-|
-----------------------------------------------------------|
-----------------------------------------------------------|
-----------------------------------------------------------|
-----------------------------------------------------------|
-----------------------------------------------------------|


  3                                                        3  
  X  S T  S  S  T T  T T  T S  S  S S  S  S  S  T  S  T T  T  
----11-9-16-12-14---11---12-9-11----9------------------------|
---------------------------------12---11-12----11------------|
--------------------------------------------13----11-11------|
----------------------------------------------------------11-|
-------------------------------------------------------------|
-------------------------------------------------------------|






  3                       3                                                
  T E  E  T T E  T E  T T Q    S. T T    E  E  T T S. E  T T E  T T S. E   
--------------------------------------|-----------------------------------|
------------------------------------5-|--L--4--L---2--0--L----------0-----|
--------------------------------------|----------------------3--L---------|
--L----9--L---8--L-9--L---8----6------|-----------------------------------|
--------------------------------------|-----------------------------------|
--------------------------------------|-----------------------------------|


                     3              3       3                                
  E  T E  T T E  T T Q    S. E  T T T    E  X S. T E  T T E  T S. Q    T. X  
-----------------------------0--L-----|-------------------------------------|
--0--L--------0--L------------------4-|--L--L-2----0--L--------0------------|
-------3--L----------3----1-----------|-------------------3--L--------------|
--------------------------------------|-------------------------------------|
--------------------------------------|-------------------------------------|
--------------------------------------|-------------------------------------|


              3             3      3   3                       3  
  H        E  X E  T T E  T T    S X T Q    E  T T S. Q.     S X  
----------------0--L----------|----------------------------------|
-----------------------4--L-2-|--L-L---0-----------0-------------|
------------------------------|-------------3--L-----------------|
------------------------------|-----------------------1------L-L-|
------------------------------|----------------------------------|
------------------------------|----------------------------------|


         3               3           3           3        
  Q.     E  T Q.     S T S    Q.     T E  E  T T Q    E   
---------------------------|--------------4--L---3----4--|
---------------------------|-----------------------------|
---------------------------|-----------------------------|
--L------L----2------L---1-|--L------L-------------------|
---------------------------|-----------------------------|
---------------------------|-----------------------------|


                                            3              3              3  
  T E  T T S. E  E  T T E  T E  T T T    E  X S. E  E  T T Q    E  T T S. X  
--L-3--L---1-----4--L---3--L-4--L---3-|--L----1-----7--L---6----7--L---6--L-|
--------------------------------------|-------------------------------------|
--------------------------------------|-------------------------------------|
--------------------------------------|-------------------------------------|
--------------------------------------|-------------------------------------|
--------------------------------------|-------------------------------------|


                                3                     3                   3  
  T. X S. E  E  T T E  T T E  T Q    T    S E  T E  T Q    E  T T E  T S. T  
--L--L-4-----7--L---6--L---7--L-6----4-|--L------5--L-4----5--L---4--L-2----|
---------------------------------------|------------------------------------|
---------------------------------------|------------------------------------|
---------------------------------------|------------------------------------|
---------------------------------------|------------------------------------|
---------------------------------------|------------------------------------|





     3 3                3                           3                 3  
  E  X Q    E  T T E  T Q    S. S.    S E  T E  T T Q    E  T S. E  T T  
-------5----4--L---5--L-4----2-----|----4--L-2--L---4----2--L-0-------3-|
-----------------------------------|------------------------------------|
-----------------------------------|------------------------------------|
-----------------------------------|------------------------------------|
-----------------------------------|------------------------------------|
-----------------------------------|------------------------------------|


     3                             3                3                 3    3  
  E  T E  T E  T T E  T T S. E  S. X    T. X E  T T Q    E  T T S. E  Q    T  
--L--L-3--L-3--L---3--L---3-----4--L-|--L--L-3--L---4----3--L---1-----4----3-|
-------------------------------------|---------------------------------------|
-------------------------------------|---------------------------------------|
-------------------------------------|---------------------------------------|
-------------------------------------|---------------------------------------|
-------------------------------------|---------------------------------------|


     3                            3       3        3                 3     
  E  X T E  T E  T T S. E  E  T T E     S X E  T T Q    S. E  E  T T Q     
--L--L---4--L-3--L---1-----7--L---6--|--L-L-7--L---6----4-----7--L---6----|
-------------------------------------|------------------------------------|
-------------------------------------|------------------------------------|
-------------------------------------|------------------------------------|
-------------------------------------|------------------------------------|
-------------------------------------|------------------------------------|


                                          3                 3         3  
  E  T T E  T S. E  E  T T E  T T S    S. Q    S. E  T E  T Q    E  T X  
--7--L---6--L-4-----5--L---4--L---5-|--L--4----2-------5--L-4----5--L---|
------------------------------------|-----------------------------------|
------------------------------------|-----------------------------------|
------------------------------------|-----------------------------------|
------------------------------------|-----------------------------------|
------------------------------------|-----------------------------------|


  3              3                        3                     3       3  
  T E  T S. E  T Q    E  T T E  T S    S. X S. E  T E  T E  T T Q    E  X  
----4--L-2-------4----2--L---4--L-2-|--L----0-------3--L-3--L---3----3--L-|
------------------------------------|-------------------------------------|
------------------------------------|-------------------------------------|
------------------------------------|-------------------------------------|
------------------------------------|-------------------------------------|
------------------------------------|-------------------------------------|


  3                      3                             3  
  T S. T H.           S. X    T. X H.           E  T T X  
--L-3----------------------|-----------------------------|
---------4------------L--L-|--L--L-2------------L--L---4-|
---------------------------|-----------------------------|
---------------------------|-----------------------------|
---------------------------|-----------------------------|
---------------------------|-----------------------------|





                  3    3                        3     
  H.           E  T S. X    H.           T. X T Q     
-------------------------|---------------------------|
--L------------L--L-2--L-|--L------------L--L---4----|
-------------------------|---------------------------|
-------------------------|---------------------------|
-------------------------|---------------------------|
-------------------------|---------------------------|


                          3                            3  
  H        E.  T. X T E.  S    H        E  T. X Q    S X  
----------------------------|----------------------------|
--L--------L---L--L---2---L-|--L--------L--L--L-4----L-L-|
----------------------------|----------------------------|
----------------------------|----------------------------|
----------------------------|----------------------------|
----------------------------|----------------------------|


           3           3             3                3  
  H        E  T Q.     X    H        T E  E  T E  T T X  
-------------------------|------------------------------|
--L--------L----2------L-|--L--------L----0--L--------0-|
-------------------------|---------------------3--L-----|
-------------------------|------------------------------|
-------------------------|------------------------------|
-------------------------|------------------------------|


                        3          3    3                            3    3  
  E  T E  T S. T E  T T Q    S. S. T    S T E  T T S. E  E  T E  T T Q    X  
-----------------0--L----------------|--------------------------------------|
--L--L------------------4----2--0--L-|--L----------0-----0--L--------0------|
-------3--L-1------------------------|------3--L--------------3--L--------3-|
-------------------------------------|--------------------------------------|
-------------------------------------|--------------------------------------|
-------------------------------------|--------------------------------------|


     3               3                                           3         3  
  E  T T S.  E  T T  Q    S. T  E  T S.    S T S. E  E  T T E  T Q    E  T T  
------------12--L---11----9-------------|------------------------------------|
-------------------------------11--L-9--|--L---8-----------------------------|
--L--L---1------------------------------|------------------------------------|
----------------------------------------|------------9--L---8--L-9----8--L---|
----------------------------------------|------------------------------------|
----------------------------------------|------------------------------------|


  3           3                       3  
  X S. T E  T Q    S. T E  T T E  T S X  
----------------------------------------|
---------5--L-4----2----0--L--------0-L-|
-------------------------------3--L-----|
----6-----------------------------------|
----------------------------------------|
----------------------------------------|





  3                       3                                                     
  T E  E  T T E  T T E  T Q    S. T  T    E  T  E  T S. T  E  T E  T T S. T S.  
------------------------------------12-|--L----11--L-9-------------------------|
--L----0--L----------0--L--------------|------------------11--L-9--L---8-------|
--------------3--L--------3----1-------|---------------------------------------|
---------------------------------------|------------------------------------9--|
---------------------------------------|---------------------------------------|
---------------------------------------|---------------------------------------|


  Q    S. Q.     S T E.     Q    E.  T T E.  T Q    T  
-------------------------|----------------------------|
-------------------------|----------------------------|
-------------------------|---------------6---L-8----L-|
--L----L--9------L---9---|--L----9---L----------------|
-------------------------|----------------------------|
-------------------------|----------------------------|


  E  T T Q    S. S. T Q    S.    S. T Q.     S S T T T T T T T S  S T  
------------------------------|----------------7-6---4---9---7-6-11-9-|
----------------------5----L--|--L----4------L------------------------|
--L--L---8----L--6------------|---------------------------------------|
------------------------------|---------------------------------------|
------------------------------|---------------------------------------|
------------------------------|---------------------------------------|


  T S  S  S S  T  T T  T T S S T S S S S  S T T T  
--L-7-12-11-9-14-12---11---9-7-6-4-9-7-6-11-9---7-|
--------------------------------------------------|
--------------------------------------------------|
--------------------------------------------------|
--------------------------------------------------|
--------------------------------------------------|


  T  T  S S S S T S S S T T T T T S  S S S  S  
----12-11-9-7-6-7-9-7-6-4---9---7-6-11-9-7-12-|
----------------------------------------------|
----------------------------------------------|
----------------------------------------------|
----------------------------------------------|
----------------------------------------------|


   S T  S  T T  T T T T  T T  T  S  S  S S  S  S T  T T  T T  T  
--11-9-14-12---11---9---16---12-14-11-12-9-11----9--------------|
----------------------------------------------12---11---12------|
-------------------------------------------------------------13-|
----------------------------------------------------------------|
----------------------------------------------------------------|
----------------------------------------------------------------|


                          3            3  
  T  S  S  T  S E  E  T T Q    E  T S. T  
-----------------------------------------|
----11-----------------------------------|
--L----11-11-----------------------------|
-------------11----9--L---8----9--L-8--L-|
-----------------------------------------|
-----------------------------------------|


  3        3                   3                       3                3   
  S T S. T Q    E  T S. T E  T Q    T    S E  T E  T T Q    E  T E  T T E   
--------------------------------------|------------------------------------|
-----------5----4--L-2----0--L------0-|--L------0--L--------0--L-----------|
-------------------------------3------|----------------3---------3--L---1--|
--L---6-------------------------------|------------------------------------|
--------------------------------------|------------------------------------|
--------------------------------------|------------------------------------|


  3 3                     3                                 
  X Q    E  T T S. T E  T Q    S. S.    H.           E  E   
----0--------------------------------|------------------0--|
---------4--L---2----0--L------0-----|---------------------|
--L-----------------------3----------|---------------------|
-------------------------------------|---------------------|
-------------------------------------|---------------------|
-------------------------------------|---------------------|


    3                              3                 3            
  T Q    S. T E  T T E  T S. T E.  T    H        E.  X Q    T. X  
--L----------------------------------|---------------------------|
----4----2----0--L--------0----------|---------------------------|
---------------------3--L------------|---------------------------|
-------------------------------1---L-|--L--------L---L-2----L--L-|
-------------------------------------|---------------------------|
-------------------------------------|---------------------------|


     3                      3       3   3                      3     
  E  X T Q.     S E  E  T T E     S X T Q    E  T S. E  T E  T Q     
---------------------4--L---3--|--L-L---4----3--L-1-------4--L-3----|
-------------------------------|------------------------------------|
-------------------------------|------------------------------------|
--L------1------L--------------|------------------------------------|
-------------------------------|------------------------------------|
-------------------------------|------------------------------------|


                                          3                   3       3  
  E  T T E  T S. E  T E  T E  T T S    S. Q    S. E  T E  T T Q    E  X  
--4--L---3--L-1-------7--L-6--L---7-|--L--6----4-------7--L---6----7--L-|
------------------------------------|-----------------------------------|
------------------------------------|-----------------------------------|
------------------------------------|-----------------------------------|
------------------------------------|-----------------------------------|
------------------------------------|-----------------------------------|


  3                                 3                    3            3  
  T E  T T S. E  E  T T E  T E  T T S    E  S. E  E  T T Q    E  T E  T  
--L-6--L---4-----5--L---4--L-5--L---4-|--L--2-----5--L---4----5--L-4--L-|
--------------------------------------|---------------------------------|
--------------------------------------|---------------------------------|
--------------------------------------|---------------------------------|
--------------------------------------|---------------------------------|
--------------------------------------|---------------------------------|




  3         3                       3                          3               
  X T S. E  Q    E  T T E  T T E  T S    T. X E  E  T T E  T T Q    E  T S. T  
--L---2-----4----2--L---4--L---2--L-0-|--L--L----3--L---3--L---3----3--L-3----|
--------------------------------------|---------------------------------------|
--------------------------------------|---------------------------------------|
--------------------------------------|---------------------------------------|
--------------------------------------|---------------------------------------|
--------------------------------------|---------------------------------------|


     3                          3     3             3                 3  
  E  Q    E  T E  T T E  T T S. E     S E  T E  T T Q    E  T T S. E  S  
-----4----3--L-4--L---3--L---1-----|----4--L-3--L---4----3--L---1-----7-|
-----------------------------------|------------------------------------|
-----------------------------------|------------------------------------|
-----------------------------------|------------------------------------|
-----------------------------------|------------------------------------|
-----------------------------------|------------------------------------|


     3   3                                            3                 3  
  S. T T Q    E  T E  T T S. E  E     T T E  T E  T T Q    S. E  E  T T T  
--L--L---6----7--L-6--L---4-----7--|--L---6--L-7--L---6----4-----5--L---4-|
-----------------------------------|--------------------------------------|
-----------------------------------|--------------------------------------|
-----------------------------------|--------------------------------------|
-----------------------------------|--------------------------------------|
-----------------------------------|--------------------------------------|


     3                             3                3                 3    3  
  E  T E  T E  T T S. E  E  T T S. X    T. X E  T T Q    S. E  T E  T Q    T  
--L--L-5--L-4--L---2-----5--L---4--L-|--L--L-5--L---4----2-------4--L-2----4-|
-------------------------------------|---------------------------------------|
-------------------------------------|---------------------------------------|
-------------------------------------|---------------------------------------|
-------------------------------------|---------------------------------------|
-------------------------------------|---------------------------------------|


     3                3            3           3                      
  E  X T E  T S. E  T Q    E  T S. X    T. X T Q    S. T H        E   
--L--L---2--L-0-------3----3--L-3--L-|--L--L---3----3----------------|
-------------------------------------|-------------------4--------L--|
-------------------------------------|-------------------------------|
-------------------------------------|-------------------------------|
-------------------------------------|-------------------------------|
-------------------------------------|-------------------------------|


  Q    T H        E.  T    E.  H        Q    S   
------------------------|----------------------||
--L----L-2--------L---L-|--L-------------------||
------------------------|----------------------||
------------------------|----------------------||
------------------------|----------------------||
------------------------|----------------------||






Duration Legend
---------------
W - whole
H - half
Q - quarter
E - 8th
S - 16th
T - 32nd
X - 64th
. - note dotted
|-n-|  - n-tuplets


Tablature Legend
----------------
L - tied note
x - dead note
g - grace note
(n) - ghost note
> - accentuded note
NH - natural harmonic
AH - artificial harmonic
TH - tapped harmonic
SH - semi harmonic
PH - pitch harmonic
h - hammer on
p - pull off
b - bend
br - bendRelease
pb - preBend
pbr - preBendRelease
brb - bendReleaseBend
\n/ - tremolo bar dip
\n - tremolo bar dive
-/n - tremolo bar Release up
/n\ - tremolo bar inverted dip
/n - tremolo bar return
-\n - tremolo bar Release down
S - shift slide
s - legato slide
/ -  slide into from below or out of upwards
\ -  slide into from above or out of downwards
~ - vibrato
W - wide vibrato
tr - trill
TP - tremolo picking
T - tapping
S - slap
P - pop
< - fade in
^ - brush up
v - brush down
Login or Register to remove this ad.

3 comments on Wicked Flame

There is an updated version

There is an updated version of this,with all the guitar parts on it. Sent it in already. Just in case anybody wanted to know.

Wow. That's a long tab.

Wow. That's a long tab. Props to you buddy.

Yeah, shit took like a

Yeah, shit took like a thousand years.lmao