Ads

Spirit of the Night (Secret of Mana) Guitar Tab

Submitted: Sep 28, 2009 by cyan (Last updated: Dec 04, 2010)

5
Average: 5 (7 votes)
Download | Listen
Game: Secret of Mana
Composer(s): Hiroki Kikuta
Style: Arrangement, Fingerstyle
Series: Mana

This song is also called Banished from Potos Village

AutoScroll: Slow | Medium | Fast
                                               Spirit of the Night
                                                by Hiroki Kikuta
                                      Arranged by André Ratzenberger (cyan)
                                   http://www.youtube.com/user/DasParkaeffchen

Desc:
My very first arrangement. It's easy to play and it was fun to create.
Hope you like it ;)
									
75 BPM



     E  E  E  E  E  E  E  E     E  S E  S S S E  E  E  E     E  E  E  E  E  E  E  E     E  E  Q    E  E  E  E   
E||--------0--0--------0--0--|----------------------------|--------------------------|-------------------------|
B||--1--1--------0--0--------|--------------1-------------|--------1--1--------------|----------------------0--|
G||--2-----------0-----------|--2--2-0--0-2---2--0--------|--2--2--------------0--0--|-------------------0-----|
D||--------------------------|--3-------------2-----3--2--|--0-----------3--3--------|--2--0--2----2--4--------|
A||--0-----------------------|----------------------------|--------------3-----------|--3----------2-----------|
E||--------------3-----------|----------------------------|--------------------------|--3----------0-----------|


                                                                                                ^         
  E  E  E  E  E  E  E  E     E  S E  S S S E  E  E  E     E  E  E  E  E  E  E  E     E  E  Q    H         
--------0--0--------0--0--|----------------------------|--------------------------|----------------------|
--1--1--------0--0--------|--------------1-------------|-----------------3--1-----|--3-----0----2--------|
--2-----------0-----------|--2--2-0--0-2---2--0-----0--|--------0--0--2--------2--|--0----------2--------|
--------------------------|--3-------------2-----3--2--|--3--3--------2-----------|-----0-------2--------|
--0-----------------------|----------------------------|--5-----------------------|-------------0--------|
--------------3-----------|----------------------------|--------------------------|--3-------------------|


  E  E  E  E  E  E  E  E     E  S E  S S S E  E  E  E     E  E  E  E  E  E  E  E     E  E  Q    E  E  E  E   
--------0--0--------0--0--|----------------------------|--------------------------|-------------------------|
--1--1--------0--0--------|--1-----------1-------------|--------1--1--------------|----------------------0--|
--2--------2--0--------0--|--2--2-0--0-2---2--0--------|--2--2--------------0--0--|-------------------0-----|
--------2-----------2-----|----------------2-----3--2--|--0-----0-----3--3--------|--2--0--2----2--4--------|
--0-----------------------|----------------------------|--------------3-----3-----|--3-----3----2--------2--|
--------------3-----------|--1---------1---0-----------|--------------------------|--3-----3----0--2--3-----|


                                                                                                 ^         
  E  E  E  E  E  E  E  E     E  S E  S S S E  E  E  E     E  E  E  E  E  E  E  E     E  E  E  E  H         
--------0--0--------0--0--|----------------------------|--------------------------|--------------5--------|
--1--1--------0--0--------|--1-----------1-------------|-----------------3--1-----|--3-----0-----5--------|
--2--------2--0--------0--|--2--2-0--0-2---2--0-----0--|--------0--0--2--------2--|--0--------0--6--------|
--------2-----------2-----|----------------2-----3--2--|--3--3--------2-----2-----|-----0--------7--------|
--0-----------------------|----------------------------|--5-----5-----------------|--------------0--------|
--------------3-----------|--1---------1---0-----------|--------------------------|--3-----3--------------|


   E  E   E  E  E   E  E  E      E  E   E  E   E  E  E  E     E  E  E  E  E  E  E  E     E  E  E  E  E  E  E  E   
-------------8--7------0-----|---------10--7---------------|--0-----------0-----------|--0--2--3--2--3--2--0---|
--10--8--10--------10--------|--10------------10-----8--6--|-----------3--------------|-----------------------3|
------0------0------0-----0--|------0------0------0-----0--|--------------------------|------------------------|
----------7------------7-----|----------7------------7-----|-----0--2--0-----0--2--0--|-----0--2--0-----0--2--0|
---8------------8------------|---8-------------8-----------|--------------------------|------------------------|
-----------------------------|-----------------------------|--0-----------0-----------|--0-----------0---------|


                                                      ^                     ^                     
  E  E  E  E  E  E  E  E     Q    E  E  Q    E  E     Q.     E  H           Q.     E  Q    E  E   
--------------------------|------------------------|--0---------0--------|-----------------------|
-----------1--0-----------|-------3--0-------1--3--|--1------3-----------|--3---------3----1--0--|
--2--0--2--------2--------|--2----0-----2----2-----|--0------------------|--0------0-------------|
--3-----------3-----2--2--|--0----------0----------|--2---------2--------|--0---------0----------|
--------3-----------------|------------------------|--3---------3--------|--2--------------------|
--1-----------1-----1--0--|------------------------|---------------------|--3---------3----------|


                                         ^                                                                 
  E  E  E  E  E  E  E  E     E  E  E  E  H           E  E  E  E  E  E  E  E     E  S E  S S S E  E  E  E   
--------------------------|--------------0--------|--------0--0--------0--0--|----------------------------|
--------------0-----------|-----------3--2--------|--1--1--------0--0--------|--1-----------1-------------|
--2-----0-----------0-----|--2-----------2--------|--2--------2--0--------0--|--2--2-0--0-2---2--0--------|
--2--0--0--0--2--0--2--0--|--2--0-----0--2--------|--------2-----------2-----|----------------2-----3--2--|
--0-----0-----0-----0-----|--0-----0-----0--------|--0-----------------------|----------------------------|
--------------------------|-----------------------|--------------3-----------|--1---------1---0-----------|


  E  E  E  E  E  E  E  E     E  E  Q    E  E  E  E     E  E  E  E  E  E  E  E     E  S E  S S S E  E  E  E   
--------------------------|-------------------------|--------0--0--------0--0--|----------------------------|
--------1--1--------------|----------------------0--|--1--1--------0--0--------|--1-----------1-------------|
--2--2--------------0--0--|-------------------0-----|--2--------2--0--------0--|--2--2-0--0-2---2--0-----0--|
--0-----0-----3--3--------|--2--0--2----2--4--------|--------2-----------2-----|----------------2-----3--2--|
--------------3-----3-----|--3-----3----2--------2--|--0-----------------------|----------------------------|
--------------------------|--3-----3----0--2--3-----|--------------3-----------|--1---------1---0-----------|


                                         ^          
  E  E  E  E  E  E  E  E     E  E  E  E  H          
--------------------------|--------------0--------||
-----------------3--1-----|--3-----0-----2--------||
--------0--0--2--------2--|--0--------0--2--------||
--3--3--------2-----2-----|-----0--------2--------||
--5-----5-----------------|--------------0--------||
--------------------------|--3-----3--------------||




Duration Legend
---------------
W - whole
H - half
Q - quarter
E - 8th
S - 16th
T - 32nd
X - 64th
. - note dotted
|-n-|  - n-tuplets


Tablature Legend
----------------
L - tied note
x - dead note
g - grace note
(n) - ghost note
> - accentuded note
NH - natural harmonic
AH - artificial harmonic
TH - tapped harmonic
SH - semi harmonic
PH - pitch harmonic
h - hammer on
p - pull off
b - bend
br - bendRelease
pb - preBend
pbr - preBendRelease
brb - bendReleaseBend
\n/ - tremolo bar dip
\n - tremolo bar dive
-/n - tremolo bar Release up
/n\ - tremolo bar inverted dip
/n - tremolo bar return
-\n - tremolo bar Release down
S - shift slide
s - legato slide
/ -  slide into from below or out of upwards
\ -  slide into from above or out of downwards
~ - vibrato
W - wide vibrato
tr - trill
TP - tremolo picking
T - tapping
S - slap
P - pop
< - fade in
^ - brush up
v - brush down
Login or Register to remove this ad.

4 comments on Spirit of the Night

hey

good first tab man i love this song, i was gonna try to arrange it out too. well see what happens

play in youtube vdeo.

5

Hey man really nice tab!, i was thinking of arranging this myself but this is just perfect :) . I was wondering if i could play this in a youtube video on my channel, i'll make sure to give you full credit and everything. Anyways. thanks for the tabs, I really enjoy them!

actually, disregard the part

5

actually, disregard the part I said about a video, I see you've already done one haha.

Really nice tab! Such a sad

5

Really nice tab! Such a sad melody but so beautiful
https://soundcloud.com/mickegitarr/secret-of-mana-spirit-of-the