Ads

The Color of the Summer Sky (Secret of Mana) Guitar Tab

Submitted: Feb 26, 2010 by auriplane (Last updated: Dec 04, 2010)

5
Average: 5 (3 votes)
Download | Listen
Game: Secret of Mana
Composer(s): Hiroki Kikuta
Style: 2 or more instruments, Alternate picking, Transcription
Series: Mana

AutoScroll: Slow | Medium | Fast
                          Secret of Mana - Color of the Summer Sky GUITAR TAB
                                      Composed by Hiroki Kikuta

                                Tabbed by Auriplane ([email protected])



I tabbed out all the instruments for this song in a GP5 file.  This tab includes only one part, the
main melody; for the rest of the parts, please see the GP5 file!  This tab is in standard tuning.


Rest for four measures at the beginning.


        Part A


 E  E  E  E  E  E  E  E   Q.       E  Q     Q      W                        W
|---------------------8--|L--------5--6-----10----|8-----------------------|L-----------------------|
|------6-----6--8--6-----|------------------------|------------------------|------------------------|
|5--7--------------------|------------------------|------------------------|------------------------|
|------------------------|------------------------|------------------------|------------------------|
|------------------------|------------------------|------------------------|------------------------|
|------------------------|------------------------|------------------------|------------------------|


 E  E  E  E  E  E  E  E   Q.       E  Q     Q      W                        W
|---------------------8--|L--------5--6-----5-----|------------------------|------------------------|
|------6-----6--8--6-----|------------------------|6-----------------------|L-----------------------|
|5--7--------------------|------------------------|------------------------|------------------------|
|------------------------|------------------------|------------------------|------------------------|
|------------------------|------------------------|------------------------|------------------------|
|------------------------|------------------------|------------------------|------------------------|


        Part A'


 E  E  E  E  E  E  E  E   Q.       E  E  E  Q      W                        W
|---------------------8--|L--------5--6--8--10----|8-----------------------|L-----------------------|
|------6-----6--8--6-----|------------------------|------------------------|------------------------|
|5--7--------------------|------------------------|------------------------|------------------------|
|------------------------|------------------------|------------------------|------------------------|
|------------------------|------------------------|------------------------|------------------------|
|------------------------|------------------------|------------------------|------------------------|


 E  E  E  E  E  E  E  E   Q.       E  E  E  E  E   W                        W
|---------------------8--|L--------5--6--5--------|------------------------|------------------------|
|------6-----6--8--6-----|------------------6--8--|6-----------------------|L-----------------------|
|5--7--------------------|------------------------|------------------------|------------------------|
|------------------------|------------------------|------------------------|------------------------|
|------------------------|------------------------|------------------------|------------------------|
|------------------------|------------------------|------------------------|------------------------|


        Part B


 H.                E  E   E  E  Q     Q     Q      W                        H           E  E  E  E
|------------------------|------------------------|------------------------|------------18-17-------|
|18-------------------17-|L--15-------15----------|------------------------|------------------18-15-|
|------------------------|------17----------15----|17----------------------|L-----------------------|
|------------------------|------------------------|------------------------|------------------------|
|------------------------|------------------------|------------------------|------------------------|
|------------------------|------------------------|------------------------|------------------------|


 H.                E  E   E  E  Q     E  E  Q      W                        W
|------------------------|------------------15----|------------------------|------------------------|
|18-------------------17-|L--15-------15-18-------|18----------------------|L-----------------------|
|------------------------|------17----------------|------------------------|------------------------|
|------------------------|------------------------|------------------------|------------------------|
|------------------------|------------------------|------------------------|------------------------|
|------------------------|------------------------|------------------------|------------------------|


        Rest for eight measures, and repeat back to Part A.




Duration Legend
---------------
W - whole
H - half
Q - quarter
E - 8th
. - note dotted


Tablature Legend
----------------
L - tied note

Login or Register to remove this ad.