Login or Register to remove this ad.

A Wish (Secret of Mana) Ukulele Tab

Submitted: Jan 10, 2018 by ark626

1
Average: 1 (1 vote)
Download | Listen
Game: Secret of Mana
Composer(s): Hiroki Kikuta
Style: Transcription
Series: Mana

AutoScroll: Slow | Medium | Fast
                                 A Wish
                             Secret of Mana
                       Composed by Hiroki Kikuta
                    Tabbed by the Ark626 09.01.2018

|----00----07----12------------12------------------03----12------------12------------00----07----12-|
|--------------------------------------------01----------12------------12---------------------------|
|----------------12------------12----------------------------------------------------------------12-|
|----------------12------------12------------------------10------------10------------------------12-|


-----------12------------------03----12------------12------------------05----------03----------10---|
-------------------------01----------12------------12------------------------07----------07---------|
-----------12----------------------------------------------------------------07---------------------|
-----------12------------------------10------------10------------00----------------------07---------|


-------------03----------02------------------------05----------03----------10--------------03-------|
-------01----------12------------------------------------07----------07--------------01----------12-|
-------------------12----------12------------------------07--------------------------------------12-|
-------------------------------12------------00----------------------07-----------------------------|


---02-----------------------------------------------------------------------------------------------|
---------------07--------12----07----------------07------------05----07----------------07-----------|
---------12----07--------12-------------------------------------------------------------------------|
---------12----07--------------07----------------07------------05----07----------------07-----------|


---08----07--------------07------------07----05--------------05------------08----07----------02---|
---------------05----------------------------------07----------------------------------05---------|
---------------------------------------------------07---------------------------------------------|
---------------05----------------------------------------------------------------------05---------|


-12----07--------------05----10----08----07------------05----03----12----03----03------------03-----|
-----------------12------------------------------------------------13-------------------------------|
-----------------------------11---------------------------------------------------------------------|
-----------------12----------------------07------------------------------------04-------------------|


-------12--------03------------------------------08----03----08--------12----08----05----10----03---|
-07----12--------03------------10----01----10-------------------------------------------------------|
-07----11----------------------10----------10-------------------------------------------------------|
----------------------------------------------------------------------------------------------------|


-----------05----------05----08----03----08--------12----08----05----10----03--------------00----07-|
----------------------------------------------------------------------------------------------------|
----------------------------------------------------------------------------------------------------|
-00--------05----00----05--------------------------------------------------------00-----------------|


-----12------------12------------------03----12------------12------------00----07----12-----------|
---------------------------------01----------12------------12-------------------------------------|
-----12------------12----------------------------------------------------------------12-----------|
-----12------------12------------------------10------------10------------------------12-----------|


-12------------------03----12------------12------------------05----------03----------10-------------|
---------------01----------12------------12------------------------07----------07--------------01---|
-12----------------------------------------------------------------07-------------------------------|
-12------------------------10------------10------------00----------------------07-------------------|


---03----------02------------------------05----------03----------10--------------03----------02---|
---------12------------------------------------07----------07--------------01----------12---------|
---------12----------12------------------------07--------------------------------------12---------|
---------------------12------------00----------------------07-------------------------------------|


---------------------------------------------------------------------------------------------08---|
-------07--------12----07----------------07------------05----07----------------07-----------------|
-12----07--------12-------------------------------------------------------------------------------|
-12----07--------------07----------------07------------05----07----------------07-----------------|


-07----------------07------------07----05--------------05------------08----07----------02----12---|
---------05----------------------------------07----------------------------------05---------------|
---------------------------------------------07---------------------------------------------------|
---------05----------------------------------------------------------------------05---------------|


-07--------------05----10----08----07------------05----03----12----03----03------------03---------|
-----------12------------------------------------------------13------------------------------07---|
-----------------------11--------------------------------------------------------------------07---|
-----------12----------------------07------------------------------------04-----------------------|


-12----------03------------------------------08----03----08--------12----08----05----10----03-------|
-12----------03------------10----01----10-----------------------------------------------------------|
-11------------------------10----------10-----------------------------------------------------------|
-------------------------------------------------------------------------------------------------00-|


-------05----------05----08----03----08--------12----08----05----10----03----------|
-----------------------------------------------------------------------------------|
-----------------------------------------------------------------------------------|
-------05----00----05--------------------------------------------------------00----|


Login or Register to remove this ad.