Ads

A Wish (Secret of Mana) Guitar Tab

Submitted: May 18, 2017 by chimatte

4.4
Average: 4.4 (5 votes)
Download | Listen
Game: Secret of Mana
Composer(s): Hiroki Kikuta
Style: Arrangement, Fingerstyle
Series: Mana

Click here for a video example.

AutoScroll: Slow | Medium | Fast
A Wish
Secret of Mana
Hiroki Kikuta
arr. chit. Giuseppe De Matteis
Dropped D Tuning

     E  E  H           E  E  H           E  E  H           E  E  H         
E||--------3--------|--------0--------|--------3--------|--------0--------|
B||--------1--------|-----------------|--------1--------|-----------------|
G||--------0--------|--------2--------|--------0--------|--------2--------|
D||-----2-----------|--------2--------|-----2-----------|--------2--------|
A||--0--------------|-----3-----------|--0--------------|-----3-----------|
D||-----------------|--3--------------|-----------------|--3--------------|


  E  E  E  E  E  E     E  E  E  E  Q       E  E  E  E  E  E   
--------3-----------|--------0----------|--------3-----------|
--------0-----3-----|--------1--0-------|--------0-----3-----|
--------0--5--4--0--|--------------2----|--------0--5--4--0--|
-----0--------0--L--|--------2--L-------|-----0--------0--L--|
--------------------|-----3--------0----|--------------------|
--5-----------------|--3----------------|--5-----------------|


  E  E  E  E  E  E     E  E  H           E  E  H           E  E  Q    Q     
--------0-----------|-----------------|-----------------|--------5----L----|
--------1--0--------|-----------------|-----------------|------------------|
--------------2-----|-----------------|-----------------|--------5----L----|
--------2--L-----0--|--2--0--L--------|-----0--L--------|-----2--7---------|
-----3--------0--2--|--3--2--L--------|--3--2--L--------|-------------7----|
--3-----------------|-----5--L--------|--3--5--L--------|--3---------------|


  E  E  Q    Q       E  E  E  E  E  E     E  E  E  E  Q       E  E  E  E  Q     
--------3----L----|--------5--7--5--L--|--3--L--L--1--0----|-------------------|
--------0----L----|--------------------|--------0--L-------|--3--------1--0----|
--------0----L----|--------5--L--L-----|--------0--L-------|--------2--L--L----|
-----0--L----0----|-----2--7--L--L-----|-----0--L-----0----|--------3--L--L----|
------------------|-----------------7--|-------------------|-----3--L----------|
--2---------------|--3-----------------|--2----------------|--0----------------|


  E  E  Q    Q       E  E  E  E  E  E      E   E   E   E   E  E   
------------------|-----------------1--|-------------------------|
--1--0-------1----|--3-----3-----1-----|--10---------------------|
-----0--2----0----|--------3-----------|------10------10------0--|
--------2---------|-----3-----3--L--L--|----------10------10-----|
--3-----2---------|--1-----------------|-------8-----------------|
------------------|--------------------|---8-------8---L---------|


  E  E  E  E  E  E     E  E  E  E  E  E       E  E  H           E  E  H         
--------------------|--5------------------||--------3--------|--------0--------|
--3--L-----------6--|-----6--3--6---------||--------1--------|-----------------|
--------5-----5-----|-----0--5-----5-----*||--------0--------|--------2--------|
-----5--L--3--L--L--|-----------------5--*||-----2-----------|--------2--------|
--3-----------------|--3------------------||--0--------------|-----3-----------|
--------------------|---------------------||-----------------|--3--------------|


  E  E  H           E  E  H          
--------3--------|--------0--------||
--------1--------|-----------------||
--------0--------|--------2--------||
-----2-----------|--------2--------||
--0--------------|-----3-----------||
-----------------|--3--------------||
Login or Register to remove this ad.

1 comment on A Wish

I like replacing the final

5

I like replacing the final measure with

  E  E  H           W
--------3--------|--0--------------||
--------1--------|--0--------------||
--------0--------|--2--------------||
-----2-----------|--2--------------||
--0--------------|--3--------------||
-----------------|--3--------------||
                    ^ Rake up kinda close to the bridge

so it's like
  E  E  H
--------3--------|-------0---------||
--------1--------|------0----------||
--------0--------|-----2-----------||
-----2-----------|----2------------||
--0--------------|---3-------------||
-----------------|--3--------------||

That extra open B string really gives this chord some flavor.