Ads

A Wish (Secret of Mana) Guitar Tab

Submitted: Feb 14, 2011 by BacardiBreezer

0
Download | Listen
Game: Secret of Mana
Composer(s): Hiroki Kikuta
Style: 2 or more instruments, Transcription
Series: Mana

AutoScroll: Slow | Medium | Fast
A Wish
Secret of Mana
Composer: Hiroki Kikuta
Tabbed by: Bacardibreezer
2/13/11

Guitar 1 - Rest for first 4 measures 

e|-------------|--------------|---------------|---------------|
B|-------------|--------------|---------------|---------------|
G|-------------|--------------|---------------|---------------|
D|-------------|--------------|---------------|---------------|
A|-------------|--------------|---------------|---------------|
E|-------------|--------------|---------------|---------------|

e|--15---------|---12--------|---15-----------|---12----------|
B|-------15----|--------13---|--------15------|--------13-----|
G|-------------|-------------|----------------|---------------|
D|-------------|-------------|----------------|------------12-|
A|-------------|-------------|----------------|---------------|
E|-------------|-------------|----------------|---------------|

e|-------------|-------------|
B|-------------|-------------|
G|-------------|-------------|
D|--10----9----|---7-----9---|
A|-------------|-------------|
E|-------------|-------------|

e|-----17------|-------------|---17--19--17---|-----------------|--------------|-----------------|
B|-------------|-----20------|----------------|20----18--17-----|--------------|-----------------|
G|-------------|-------------|----------------|-----------------|--19---17-16--|--17-16------17--|
D|-------------|-------------|----------------|-----------------|--------------|--------19-------|
A|-------------|-------------|----------------|-----------------|--------------|-----------------|
E|-------------|-------------|----------------|-----------------|--------------|-----------------|

e|-------------|-------------|----------------|--------------|
B|--19-----17--|-----19------|---19------17---|------19------|
G|-------------|-------------|----------------|--------------|
D|-------------|-------------|----------------|--------------|
A|-------------|-------------|----------------|--------------|
E|-------------|-------------|----------------|--------------|

Guitar 2 

e|---------15--|---------12---|---------15----|--------12-----|
B|---------13--|---------10---|---------13----|--------10-----|
G|---------12--|---------10---|---------12----|--------10-----|
D|-----14------|-----10-------|-----14--------|----10---------|
A|--12---------|---8----------|--12-----------|--8------------|
E|-------------|--------------|---------------|---------------|

e|---------15-----|---------12-----|--------15-----|--------12------|
B|------------15--|------------10--|-----------15--|-----------10---|
G|----------------|----------------|---------------|----------------|
D|-----12---------|-----10---------|-----12--------|----10----------|
A|--10------------|---8------------|--10-----------|--8-------------|
E|----------------|----------------|---------------|----------------|

e|---------------|-----------------|
B|---------------|-----------------|
G|---------------|-----------------|
D|--14-----12----|---10------12----|
A|--12-----10----|---8-------10----|
E|---------------|-----------------|

e|---------------|--------------|---------------|--------------|--------------|-------------|
B|--------10-----|-------8------|--------10-----|-------8------|-------6------|-------5-----|
G|-----9-------9-|----7-----7---|-----9-------9-|----7------7--|----5-------5-|-----------5-|
D|---------------|--------------|---------------|--------------|--------------|----5--------|
A|--8------------|--7-----------|--8------------|--7-----------|--5-----------|--3----------|
E|---------------|--------------|---------------|--------------|--------------|-------------|

e|---------------|---------------|---------------|---------------------|
B|---------------|---------------|---------3--6--|---------3-----------|
G|---------7--10-|---------7--10-|---------5-----|---------5----5------|
D|---------8-----|---------8-----|-----5---------|-----5-----------5---|
A|-----8---------|-----8---------|--3------------|--3------------------|
E|--6------------|--6------------|---------------|---------------------|

Guitar 3 - only last 4 measures

e|-----------13---|-17-13--------------|-----------13---|-17-13--------------|
B|--15----13------|-------13-----------|--15----13------|-------13-----------|
G|----------------|----------12--------|----------------|----------12--------|
D|----------------|-------------10-----|----------------|-------------10-----|
A|----------------|----------------10--|----------------|----------------10--|
E|----------------|--------------------|----------------|--------------------|
Login or Register to remove this ad.