Ads

Whisper and Mantra (Secret of Mana) Guitar Tab

Submitted: Dec 02, 2011 by iamHoustonian

5
Average: 5 (1 vote)
Download | Listen
Game: Secret of Mana
Composer(s): Hiroki Kikuta
Style: 2 or more instruments, Transcription
Series: Mana

AutoScroll: Slow | Medium | Fast
Whisper and Mantra
Secret of Mana
Composer: Hiroki Kikuta
Tabbed by: iamHoustonian
Date Tabbed: 11/29/2011



Guitar I

e-17----------------19-20-19----------------------------------
B----17----20----------------20-------------------------------
G-------19----------------------19-16------------------------- X 10 
D-------------17-19-------------------------------------------
A-------------------------------------------------------------
E-------------------------------------------------------------

                                     
e-17----------------19-20-19----------22-19----------24-22-21-------------
B----17----20----------------20-------------20----------------22-17-------
G-------19----------------------19-16----------19-------------------19-18-
D-------------17-19-------------------------------21----------------------
A-------------------------------------------------------------------------
E-------------------------------------------------------------------------




Guitar II
Part I
e-------------------------------------------------------------
B-------------------------------------------------------------
G------------------------------------------------------------- X 2
D-------------2--------------5---2----------------------------
A--5---3----------5-------------------------------------------
E---------------------3--5------------------------------------


Guitar II
Part II
e-------------------------------------------------------------
B-------------------------------------------------------------
G-------------2-----------------------------------------------
D--3----3--5-----3------5--2---------0------------------------
A-------------------3-5-------2-------------------------------
E-------------------------------3-----------------------------

e--------------------------------------------------------------
B--------------------------------------------------------------
G-2------------2----------------------2------------------------
D---3----3--5-----3------5--2----------------------------------
A--------------------3-5-------2-------------------------------
E--------------------------------3-----------------------------


Login or Register to remove this ad.