Login or Register to remove this ad.

Rose and Ghost (Tenor Ukulele) (Secret of Mana) Ukulele Tab

Submitted: Jan 10, 2018 by ark626

1
Average: 1 (1 vote)
Download | Listen
Game: Secret of Mana
Composer(s): Hiroki Kikuta
Style: Transcription
Series: Mana

AutoScroll: Slow | Medium | Fast
                                     Rose and Ghost
                                     Secret of Mana
                               Composed by Hiroki Kikuta
                            Tabbed by the Ark626 09.01.2018

|----00----05----07----12----15--------14------------00----05----07----12----15--------14-----------|
|--------------------------------------15----------------------------------------------15-----------|
|--------------------------------------14----------------------------------------------14-----------|
|---------------------------------------------------------------------------------------------------|


---05----07----------12----15----12----14----15--------05----07----07----12----15--------14---------|
---05----------12----------------------12--------------05--------------------------------15---------|
-----------------------------------------------------------------------------------------14---------|
---------07----12----------------------12--------------------07-------------------------------------|


---05----07----------12----15----12----14----12--------15----05----------13----05--------15----05---|
---05----------12----------------------12--------------------------10-------------------------------|
-------------------------------------------------------10--------------------------------10---------|
---------07----12----------------------12--------------10----------10--------------------12---------|


-----12----03----07----08----12----------------------00----03----07----08----12---------------------|
-----12--------------------------------08----------------------------------------------08-----------|
---------------------------------------09----------------------------------------------09-----------|
---------------------------------------09----------------------------------------------09-----------|


---05----15----05----14----08----10----05----14--------05----10----05----15----08----10----14----12-|
---15----15----------12----------------------12--------15-------------------------------------------|
---------------------------------------------14--------------------------------------------07-------|
-------------------------------------------------------------------------------09-------------------|


-------14----03----07----03----07----08----15----12--------07----08----15----12----07----08----15---|
----------------------------------------------------------------------------------------------------|
-------05--------------------------------------------------05----------------------------------05---|
----------------------------------------------------------------------------------------------------|


-12--------05----15----05----14----08----10----05----14--------05----10----05----15----08----10---|
-----------15----15----------12----------------------12--------15---------------------------------|
-----------------------------------------------------14-------------------------------------------|
---------------------------------------------------------------------------------------09---------|


-10----12--------12----15----08----07----15----12----08----07--------15----12----08----07----15---|
-----------------13--------------------------------------------------13---------------------------|
--------------------------------------------------------------------------------------------------|
--------------------------------------------------------------------------------------------------|


-12----08----07--------08----------15----10----03----15----------05--------14----15----14--------10-|
-----------------------08----12----------------------------12--------------------12----15-----------|
-------------------------------------------------------------------------------------------------11-|
-----------------------------12----------------------------12---------------------------------------|


-----------12--------15----14------15----10------05----09--------10------05----10------------15-----|
---------------------14--------------------------05----------------------05----------14------12-----|
-----------------------------------------------------------------09---------------------------------|
---------------------------14------14------------------------------------------11----14-------------|


---15------------00----05----07----12----15--------14------------00----05----07----12----15-------|
---15----------------------------------------------15---------------------------------------------|
---14----------------------------------------------14---------------------------------------------|
--------------------------------------------------------------------------------------------------|


-14------------05----07----------12----15----12----14----15--------05----07----07----12----15-------|
-15------------05----------12----------------------12--------------05-------------------------------|
-14-------------------------------------------------------------------------------------------------|
---------------------07----12----------------------12--------------------07-------------------------|


-14------------05----07----------12----15----12----14----12--------15----05----------13----05-------|
-15------------05----------12----------------------12--------------------------10-------------------|
-14----------------------------------------------------------------10-------------------------------|
---------------------07----12----------------------12--------------10----------10-------------------|


-15----05--------12----03----07----08----12----------------------00----03----07----08----12-------|
-----------------12--------------------------------08---------------------------------------------|
-10------------------------------------------------09---------------------------------------------|
-12------------------------------------------------09---------------------------------------------|


---------------05----15----05----14----08----10----05----14--------05----10----05----15----08----10-|
-08------------15----15----------12----------------------12--------15-------------------------------|
-09------------------------------------------------------14-----------------------------------------|
-09----------------------------------------------------------------------------------------09-------|


---14----12--------14----03----07----03----07----08----15----12--------07----08----15----12----07---|
----------------------------------------------------------------------------------------------------|
---07--------------05--------------------------------------------------05---------------------------|
----------------------------------------------------------------------------------------------------|


-08----15----12--------05----15----05----14----08----10----05----14--------05----10----05----15---|
-----------------------15----15----------12----------------------12--------15---------------------|
-------05--------------------------------------------------------14-------------------------------|
--------------------------------------------------------------------------------------------------|


-08----10----10----12--------12----15----08----07----15----12----08----07--------15----12----08---|
-----------------------------13--------------------------------------------------13---------------|
--------------------------------------------------------------------------------------------------|
-09-----------------------------------------------------------------------------------------------|


-07----15----12----08----07--------08----------15----10----03----15----------05--------14----15---|
-----------------------------------08----12----------------------------12--------------------12---|
--------------------------------------------------------------------------------------------------|
-----------------------------------------12----------------------------12-------------------------|


-14--------10------------12--------15----14------15----10------05----09--------10------05----10---|
-15--------------------------------14--------------------------05----------------------05---------|
-----------11------------------------------------------------------------------09-----------------|
-----------------------------------------14------14------------------------------------------11---|


---------15--------15------------00----05----07----12----15--------14------------00----05----07---|
-14------12--------15----------------------------------------------15-----------------------------|
-------------------14----------------------------------------------14-----------------------------|
-14-----------------------------------------------------------------------------------------------|


-12----15--------14------------15--------------------------------|
-----------------15------------12--------------------------------|
-----------------14----------------------------------------------|
-------------------------------14--------------------------------|


Login or Register to remove this ad.