Login or Register to remove this ad.

Rose and Ghost (Soprano Ukulele) (Secret of Mana) Ukulele Tab

Submitted: Jan 10, 2018 by ark626

1
Average: 1 (1 vote)
Download | Listen
Game: Secret of Mana
Composer(s): Hiroki Kikuta
Style: Transcription
Series: Mana

AutoScroll: Slow | Medium | Fast
                                     Rose and Ghost
                                     Secret of Mana
                               Composed by Hiroki Kikuta
                            Tabbed by the Ark626 09.01.2018

|----00----05----07----12----03--------10------------00----05----07----12----03--------10-----------|
|--------------------------------------10----------------------------------------------10-----------|
|--------------------------------------11----------------------------------------------11-----------|
|---------------------------------------------------------------------------------------------------|


---05----07----------12----03----12----------03--------05----07----07----12----03--------10---------|
---05----------12----------------------12--------------05--------------------------------10---------|
---------------------------------------11------------------------------------------------11---------|
---------07----12----------------------12--------------------07-------------------------------------|


-----05----07----------12----03----12----------12--------08----05----------13----05--------10----05-|
-----05----------12----------------------12--------------08----------10--------------------08-------|
-----------------------------------------11--------------10--------------------------------10-------|
-----------07----12----------------------12--------------------------10-----------------------------|


-------12----03----07----08----12----------------------00----03----07----08----12-------------------|
-------12--------------------------------08----------------------------------------------08---------|
-----------------------------------------09----------------------------------------------09---------|
-----------------------------------------09----------------------------------------------09---------|


-------------------05----07----08----10----05----07--------------10----05----03----08----10---------|
-------------------------07----------------------07--------------------------------------------07---|
-------07----12--------------------------------------------07----------------------------------07---|
-------07----12----------------------------------07--------07----------------------09---------------|


-12--------02----03----07----03----07----08----03----12--------07----08----03----12----07----08-----|
-----------01---------------------------------------------------------------------------------------|
---------------------------------------------------------------05-----------------------------------|
----------------------------------------------------------------------------------------------------|


-------12--------------------05----07----08----10----05----07--------------10----05----03----08---|
-----------------------------------07----------------------07-------------------------------------|
-05--------------07----12--------------------------------------------07---------------------------|
-05--------------07----12----------------------------------07--------07----------------------09---|


-10----10----12--------12----03----08----07----03----12----08----07--------08----12----08----07-----|
-----------------------13--------------------------------------------------08-----------------------|
----------------------------------------------------------------------------------------------------|
----------------------------------------------------------------------------------------------------|


-03----12----08----07--------08----------03----10----03----03----------05--------02----------10-----|
-----------------------------08----12----------------------------12--------------------12-----------|
---------------------------------------------------------------------------------------12----11-----|
-----------------------------------12----------------------------12---------------------------------|


---10------------12--------09----12------------10------05----09----------------05----10----12-------|
---------------------------08------------05------------05--------------03------05-------------------|
---11----------------------------11-----------------------------------------------------------------|
-----------------------------------------05----------------------------02------------11----11-------|


-----------10------------00----05----07----12----03--------10------------00----05----07----12----03-|
-12--------08----------------------------------------------10---------------------------------------|
-12--------------------------------------------------------11---------------------------------------|
-----------07---------------------------------------------------------------------------------------|


-------10------------05----07----------12----03----12----------03--------05----07----07----12----03-|
-------10------------05----------12----------------------12--------------05-------------------------|
-------11------------------------------------------------11-----------------------------------------|
---------------------------07----12----------------------12--------------------07-------------------|


---------10------------05----07----------12----03----12----------12--------08----05----------13---|
---------10------------05----------12----------------------12--------------08----------10---------|
---------11------------------------------------------------11--------------10---------------------|
-----------------------------07----12----------------------12--------------------------10---------|


-05--------10----05--------12----03----07----08----12----------------------00----03----07----08---|
-----------08--------------12--------------------------------08-----------------------------------|
-----------10------------------------------------------------09-----------------------------------|
-------------------------------------------------------------09-----------------------------------|


-12------------------------------------05----07----08----10----05----07--------------10----05----03-|
-------------08------------------------------07----------------------07-----------------------------|
-------------09------------07----12--------------------------------------------07-------------------|
-------------09------------07----12----------------------------------07--------07-------------------|


---08----10----------12--------02----03----07----03----07----08----03----12--------07----08----03---|
---------------07--------------01-------------------------------------------------------------------|
---------------07------------------------------------------------------------------05---------------|
---09-----------------------------------------------------------------------------------------------|


-12------07----08----------12--------------------05----07----08----10----05----07--------------10---|
-------------------------------------------------------07----------------------07-------------------|
---------------------05--------------07----12--------------------------------------------07---------|
---------------------05--------------07----12----------------------------------07--------07---------|


-05----03----08----10----10----12--------12----03----08----07----03----12----08----07--------08---|
-----------------------------------------13--------------------------------------------------08---|
--------------------------------------------------------------------------------------------------|
-------------09-----------------------------------------------------------------------------------|


-12------08----07----03----12----08----07--------08----------03----10----03----03----------05-------|
-------------------------------------------------08----12----------------------------12-------------|
----------------------------------------------------------------------------------------------------|
-------------------------------------------------------12----------------------------12-------------|


-02----------10--------10------------12--------09----12------------10------05----09---------------|
-------12--------------------------------------08------------05------------05--------------03-----|
-------12----11--------11----------------------------11-------------------------------------------|
-------------------------------------------------------------05----------------------------02-----|


-05------10----12----------------10------------00----05----07----12----03--------10------------00---|
-05--------------------12--------08----------------------------------------------10-----------------|
-----------------------12--------------------------------------------------------11-----------------|
---------11----11----------------07-----------------------------------------------------------------|


-05----07----12----03--------10------------12--------------------------------|
-----------------------------10------------12--------------------------------|
-----------------------------11------------12--------------------------------|
-----------------------------------------------------------------------------|


Login or Register to remove this ad.