Rose and Ghost (Low G) (Secret of Mana) Ukulele Tab

Submitted: Jan 10, 2018 by ark626 (Last updated: Jun 19, 2018)

3
Average: 3 (2 votes)
Download | Listen
Game: Secret of Mana
Composer(s): Hiroki Kikuta
Style: Fingerstyle, Transcription
Series: Mana

AutoScroll: Slow | Medium | Fast
                                     Rose and Ghost
                                     Secret of Mana
                               Composed by Hiroki Kikuta
                            Tabbed by the Ark626 09.01.2018


4/4

 Translated by Vincent Dinger     |       |        
|------------------------|------------------------|
|--------0---------------|----------------0-------|
|----2-----------0-------|0-----------2-----------|
|2-----------2-----------|4-------2-----------2---|
 
 |       |       |        |       |       |        
|------------------------|------------0-----------|
|----------------0---0---|3---------------0-------|
|0-------0-------2---2---|4-------0-------0-------|
|--------4-------2-------|----2-----------4---5---|
 
 |       |       |        |       |       |        
|------------------------|------------------------|
|0---0---0---------------|--------0---0---3-------|
|2---2-----------0-------|--------2---2---4-------|
|2-----------2-----------|0-------2-----------2---|
 
 |       |       |        |       |       |        
|----0-------------------|------------------------|
|--------0-------1-------|1-----------------------|
|0-------0-------0---2---|2-------2-------0---2---|
|--------4---2---3---3---|3---3-----------3---0---|
 
 |       |       |        |       |       |        
|------------------------|------------------------|
|0-------0---1-----------|0---------------0---1---|
|0---0-------------------|0-----------0-----------|
|2---------------2-------|0-------2---------------|
 
 |       |       |        |       |       |        
|------------------------|------------0-----------|
|--------0-------0---0---|3---------------0-------|
|--------0-------2---2---|4-------0-------0-------|
|2-------0-------2-------|----2-----------4---5---|
 
 |       |       |        |       |       |        
|------------------------|------------------------|
|0---0---0---------------|--------0---0---3-------|
|2---2-----------0-------|--------2---2---4-------|
|2-----------2-----------|0-------2-----------2---|
 
 |       |       |        |       |       |        
|----0-------------------|------------------------|
|--------0-------1-------|1-----------------------|
|0-------0-------0---2---|2-------2-------0---2---|
|--------4---2---3---3---|3---3-----------3---0---|
 
 |       |       |        |       |       |        
|------------------------|------------------------|
|0-------0---1-----------|0---------------0---1---|
|0---0-------------------|0-----------0-----------|
|2---------------2-------|0-------2---------------|
 
 |       |       |        |       |       |        
|------------------------|------------------------|
|--------0-------1-------|----0---1-----------0---|
|--------0-------2---0---|2---------------2---2---|
|2-------0-------0---0---|----4-------0-------4---|
 
 |       |       |        |       |       |        
|------------------------|------------------------|
|1---------------1-------|--------0-------0-------|
|2-------2---0---4-------|--------5-------0---0---|
|0---0---------------0---|4---2---4---5---2-------|
 
 |       |       |        |       |       |        
|------------------------|------------------------|
|0---1-----------1---1---|--------0---1-----------|
|--------0---0---4-------|0---------------5-------|
|------------2-----------|----2-----------5---2---|
 
 |       |       |        |       |       |        
|------------------------|------------------------|
|1-----------0---1-------|----0---1---------------|
|2---0---2---------------|2---2---2-------2---0---|
|0---0-------4-------0---|----4---0---0-----------|
 
 |       |       |        |       |       |        
|----------------0-------|------------------------|
|1-------3-------0---1---|1---0-----------1---0---|
|4---------------0-------|--------0-----------0---|
|----0---4---2---2-------|------------2-----------|
 
 |       |       |        |       |       |        
|------------------------|------------------------|
|------------------------|1---0---1---0-----------|
|5-------5---4-----------|--------0-------0---2---|
|5---2-----------5---2---|--------0---0-----------|
 
 |       |       |        |       |       |        
|------------------------|------------------------|
|0-------0---0---0---0---|----0-----------2-------|
|----0-------2-------0---|----------------2---2---|
|--------0-------0-------|4-------0-------2-------|
 
 |       |       |       |        |       |       |       |        
|3---2---0-------0-----------0---|--------------------------------|
|2-----------3-------2---3-------|3---2---0---------------0---0---|
|--------0-------2-----------2---|6-------0-------2-------2---2---|
|----2-----------0-------2-------|----2-----------5-------2-------|
 
 |       |       |       |        |       |       |       |        
|------------0-------------------|--------------------------------|
|3---------------0-------0---0---|------------------------0---0---|
|4-------0-------0-------2---2---|4---------------0-------2---2---|
|----2-----------4---5---2-------|----2---5-------0-------2-------|
 
 |       |       |       |        |       |       |       |        
|------------0-------------------|--------------------------------|
|3---------------0-------1-------|1-----------------------0-------|
|4-------0-------0-------0---2---|2-------2-------0---2---0---0---|
|----2-----------4---2---3---3---|3---3-----------3---0---2-------|
 
 |       |       |       |        |       |       |       |        
|--------------------------------|--------------------------------|
|----1-----------0---------------|0---1-----------0-------0---0---|
|----------------0-----------0---|----------------0-------2---2---|
|--------2-------0-------2-------|--------2-------0-------2-------|
 
 |       |       |       |        |       |       |       |        
|------------0-------------------|--------------------------------|
|3---------------0-------0---0---|------------------------0---0---|
|4-------0-------0-------2---2---|4---------------0-------2---2---|
|----2-----------4---5---2-------|----2---5-------0-------2-------|
 
 |       |       |       |        |       |       |       |        
|------------0-------------------|--------------------------------|
|3---------------0-------1-------|1-----------------------0-------|
|4-------0-------0-------0---2---|2-------2-------0---2---0---0---|
|----2-----------4---2---3---3---|3---3-----------3---0---2-------|
 
 |       |       |       |        |       |       |       |        
|--------------------------------|--------------------------------|
|----1-----------0---------------|0---1-----------0-------1-------|
|----------------0-----------0---|----------------0-------2---0---|
|--------2-------0-------2-------|--------2-------0-------0---0---|
 
 |       |       |       |        |       |       |       |        
|--------------------------------|--------------------------------|
|----0---1-----------0---1-------|--------1---------------0-------|
|2---------------2---2---2-------|2---0---4---------------5-------|
|----4-------0-------4---0---0---|------------0---4---2---4---5---|
 
 |       |       |       |        |       |       |       |        
|--------------------------------|--------------------------------|
|0-------0---1-----------1---1---|--------0---1-----------1-------|
|0---0-----------0---0---4-------|0---------------5-------2---0---|
|2-------------------2-----------|----2-----------5---2---0---0---|
 
 |       |       |       |        |       |       |       |        
|--------------------------------|------------------------0-------|
|----0---1-----------0---1-------|--------1-------3-------0---1---|
|2---------------2---2---2-------|2---0---4---------------0-------|
|----4-------0-------4---0---0---|------------0---4---2---2-------|
 
 |       |       |       |        |       |       |       |        
|--------------------------------|--------------------------------|
|1---0-----------1---0-----------|1---0-----------1---0---1---0---|
|--------0-----------0---5-------|--------0---------------0-------|
|------------2-----------5---2---|------------2-----------0---0---|
 
 |       |       |       |        |       |       |        
|--------------------------------|------------------------|
|--------0-------0---0---0---0---|----0-----------2-------|
|0---2-------0-------2-------0---|----------------2---2---|
|----------------0-------0-------|4-------0-------2-------|
 
 |       |       |       |        |       |       |       |        
|3---2---0-------0-----------0---|--------------------------------|
|2-----------3-------2---3-------|3---2---0-----------------------|
|--------0-------2-----------2---|6-------0-------2---------------|
|----2-----------0-------2-------|----2-----------5---------------|
Login or Register to remove this ad.