Ads

Rose and Ghost (Secret of Mana) Guitar Tab

Submitted: Dec 31, 2016 by chimatte (Last updated: Jan 30, 2017)

5
Average: 5 (2 votes)
Download | Listen
Game: Secret of Mana
Composer(s): Hiroki Kikuta
Style: Arrangement, Fingerstyle
Series: Mana

Click here for a video example.

AutoScroll: Slow | Medium | Fast
ROSE AND GHOST - Secret of Mana


     E  E  E  E  Q    Q       E  E  E  E  Q    Q         E  E  E  E  E  E  E  E   
E||------------------------|------------------------||------0--3--------5--0-----|
B||--------------1----0----|--------------1----0----||---3-----------------0--1--|
G||-----------2-------0----|-----------2-------0----||*-----------2--5-----0-----|
D||-----0--2----------0----|-----0--2----------0----||*-----0--2-----------------|
A||--0---------------------|--0---------------------||---0-----------------------|
E||-------------------3----|-------------------3----||---------------------3-----|


  E  E  E  E  Q    Q       E  E  E  E  E  E  E  E     E  E  E  E  Q    E  E   
-----0--0---------------|-----0--3--------5--0-----|-------------------------|
--3-----------1----0----|--3-----------------0-----|--1--3--3-----3----1--3--|
-----------2-------0----|-----------2--5-----0--2--|-----------3-------0-----|
-----0--2----------0----|-----0--2-----------------|--3--0--3----------------|
--0---------------------|--0-----------------------|--1----------------1-----|
-------------------3----|--------------------3-----|-------------------------|


  E  E  E  E  Q    Q       E  E  E  E  Q    Q         E  E  E  E  E  E  E  E   
--0---------------------|-------------------------||-----------0--1--------0--|
------------------------|-------------------------||--3--1--3--0--------3--0--|
--2-----------2---------|--------------2---------*||-----0-----------0--------|
--------2--3-------2----|--------2--3-------2----*||--------------3--------0--|
--0--3-------------3----|-----3-------------3-----||--------------------------|
-------------------5----|--5----------------5-----||--3-----------------------|


  E  E  E  E  E  E  E  E     E  E  E  E  E  E  E  E     E  E  E  E  E  E  E  E   
--------------0-----------|--------------------------|--------------------------|
--3-----3--1--------0-----|--0-----------------1-----|--------1-----------1-----|
-----0-----------0-----2--|-----------------------2--|-----------2-----------2--|
--------------3-----------|--------2-----2--3--------|--2--3--------2--3--------|
--------------------------|-----3-----3--------3-----|--------------------------|
--3-----------------3-----|--1-----------------------|--1-----------------1-----|


  E  E  E  E  E  E  E  E     E  E  E  E  E  E  E  E     E  E  E  E  E  E  E  E   
-----------0--1--------0--|--------------0-----3-----|--5-----------------------|
--3--1--3--0--------3--0--|--3-----3--1--------------|--------6--5--------6--5--|
-----0-----------0--------|-----0-----------0-----2--|-----5--------5-----------|
--------------3--------0--|--------------3-----------|--3--------------7--------|
--------------------------|--------------------------|--------------------------|
--3-----------------------|--3-----------------3-----|--------------------------|


  E  E  E  E  E  E  E  E     E  E  E  E  E  E  E  E     E  E  Q    Q     
-----------------------0--|--1--0--------------0-----|------------------|
--------6--5--------6-----|--------1--------1-----3--|--0--1--0---------|
--5-----------5-----------|-----0-----0--------0-----|--------0----0----|
-----7-----------7--------|--------------------------|-----2------------|
--8-----------------8-----|--3-----------3-----------|--2----------2----|
--------------------------|--------------------------|------------------|


  Q    E  E   E  E   E  E     E   E  E  E   Q    Q       E  E  E  E  Q    Q     
-------8--7----------------|--------------------------|------------------------|
-------------10--8--10--7--|--8--10--8--7--------1----|--------------1----0----|
--2------------------------|----------------9----0----|-----------2-------0----|
----------7--10------0-----|------0-----7--10----0----|-----0--2----------0----|
--0----9-------------------|--0------9----------------|--0---------------------|
---------------------------|--------------------------|-------------------3----|


  E  E  E  E  Q    Q       E  E  E  E  E  E  E  E     E  E  E  E  Q    Q     
------------------------|-----0--3--------5--0-----|-----0--0---------------|
--------------1----0----|--3-----------------0--1--|--3-----------1----0----|
-----------2-------0----|-----------2--5-----0-----|-----------2-------0----|
-----0--2----------0----|-----0--2-----------------|-----0--2----------0----|
--0---------------------|--0-----------------------|--0---------------------|
-------------------3----|--------------------3-----|-------------------3----|


  E  E  E  E  E  E  E  E     E  E  E  E  Q    E  E     E  E  E  E  Q    Q     
-----0--3--------5--0-----|-------------------------|--0---------------------|
--3-----------------0-----|--1--3--3-----3----1--3--|------------------------|
-----------2--5-----0--2--|-----------3-------0-----|--2-----------2---------|
-----0--2-----------------|--3--0--3----------------|--------2--3-------2----|
--0-----------------------|--1----------------1-----|--0--3-------------3----|
--------------------3-----|-------------------------|-------------------5----|


  E  E  E  E  Q    Q       E  E  E  E  E  E  E  E     E  E  E  E  E  E  E  E   
------------------------|-----------0--1--------0--|--------------0-----------|
------------------------|--3--1--3--0--------3--0--|--3-----3--1--------0-----|
--------------2---------|-----0-----------0--------|-----0-----------0-----2--|
--------2--3-------2----|--------------3--------0--|--------------3-----------|
-----3-------------3----|--------------------------|--------------------------|
--5----------------5----|--3-----------------------|--3-----------------3-----|


  E  E  E  E  E  E  E  E     E  E  E  E  E  E  E  E     E  E  E  E  E  E  E  E   
--------------------------|--------------------------|-----------0--1--------0--|
--0-----------------1-----|--------1-----------1-----|--3--1--3--0--------3--0--|
-----------------------2--|-----------2-----------2--|-----0-----------0--------|
--------2-----2--3--------|--2--3--------2--3--------|--------------3--------0--|
-----3-----3--------3-----|--------------------------|--------------------------|
--1-----------------------|--1-----------------1-----|--3-----------------------|


  E  E  E  E  E  E  E  E     E  E  E  E  E  E  E  E     E  E  E  E  E  E  E  E   
--------------0-----3-----|--5-----------------------|-----------------------0--|
--3-----3--1--------------|--------6--5--------6--5--|--------6--5--------6-----|
-----0-----------0-----2--|-----5--------5-----------|--5-----------5-----------|
--------------3-----------|--3--------------7--------|-----7-----------7--------|
--------------------------|--------------------------|--8-----------------8-----|
--3-----------------3-----|--------------------------|--------------------------|


  E  E  E  E  E  E  E  E     E  E  Q    Q       Q    E  E   E  E   E  E   
--1--0--------------0-----|------------------|-------8--7----------------|
--------1--------1-----3--|--0--1--0---------|-------------10--8--10--7--|
-----0-----0--------0-----|--------0----0----|--2------------------------|
--------------------------|-----2------------|----------7--10------0-----|
--3-----------3-----------|--2----------2----|--0----9-------------------|
--------------------------|------------------|---------------------------|


  E   E  E  E   Q    Q       E  E  E  E  Q    Q       E  E  E  E  Q    Q       W                  
--------------------------|------------------------|------------------------|--5----------------||
--8--10--8--7--------1----|--------------1----0----|--------------1----0----|--5----------------||
----------------9----0----|-----------2-------0----|-----------2-------0----|--5----------------||
------0-----7--10----0----|-----0--2----------0----|-----0--2----------0----|--7----------------||
--0------9----------------|--0---------------------|--0---------------------|--7----------------||
--------------------------|-------------------3----|-------------------3----|--5----------------||




Duration Legend
---------------
W - whole
H - half
Q - quarter
E - 8th
S - 16th
. - note dotted
|-n-|  - n-tuplets

Login or Register to remove this ad.