Ads

Mystic Invasion (Secret of Mana) Guitar Tab

Submitted: Nov 08, 2010 by BacardiBreezer (Last updated: Jul 20, 2011)

0
Download | Listen
Game: Secret of Mana
Composer(s): Hiroki Kikuta
Style: Alternate picking, Transcription
Series: Mana

This song is also called The Divine Invasion, The Holy Intruder, 聖なる侵入

AutoScroll: Slow | Medium | Fast
The Holy Intruder aka Mystic Invasion
Secret of Mana
Hiroki Kikuta
BacardiBreezer
11/7/10
Revised 7/18/11

e|---------------------------------------------------|
B|---------------------------------------------------|
G|--7--5-----9--7---------------12---9~--------11----|
D|--7--5-----9--7-----------7---12-------------------|
A|----------------------10---------------------------|
E|---------------------------------------------------| x2

e|---------------------------------------------------|
B|---------------------------------------------------|
G|--10~---10--12--14-----------12---9----------------|
D|--------------------15----12--------9--------------|
A|-----------------------15-------------10-----------|
E|---------------------------------------------10----|

e|---------------------------------------------------|
B|---------------------------------------------------|
G|--10~---10--12--14-----------12---9----------14----|
D|--------------------15----12--------9--------------|
A|-----------------------15-------------10-----------|
E|---------------------------------------------------|
Login or Register to remove this ad.