Ads

Eight Ringing Bells (Secret of Mana) Guitar Tab

Submitted: Nov 11, 2010 by BacardiBreezer (Last updated: Dec 04, 2010)

5
Average: 5 (1 vote)
Download | Listen
Game: Secret of Mana
Composer(s): Hiroki Kikuta
Style: Alternate picking, Transcription
Series: Mana

This song is also called Ice Palace

AutoScroll: Slow | Medium | Fast
"A Bell is Tolling"
Secret of Mana
Composer: Hiroki Kikuta
Tabbed by BacardiBreezer
11/9/10

e|----------------------|-------------15-------|---------------------|------------15-------|
B|--17-------------15---|---17-------------13--|--15-------------13--|--15-------------15--|
G|-------12---14--------|--------14------------|------------12-------|-------12------------|
D|----------------------|----------------------|-------14------------|---------------------|
A|----------------------|----------------------|---------------------|---------------------|
E|----------------------|----------------------|---------------------|---------------------| x2

e|-----------------------------------|
B|-----------------------------------|
G|--9-9-9------12-9-------12-9-------|
D|----------12---------12-------12---|
A|-----------------------------------|
E|-----------------------------------| x2

e|--7-8-7-----------------------------------------|
B|--------8-----8-10-8-7---8---10---12---15~------|
G|----------9-------------------------------------|
D|------------------------------------------------|
A|------------------------------------------------|
E|------------------------------------------------|

e|-----------------------------------|
B|-----------------------------------|
G|--9-9-9------12-9-------12-9-------|
D|----------12---------12-------12---|
A|-----------------------------------|
E|-----------------------------------| x2

e|--7-8-7------------------------------------------|
B|--------8------12-13-15---13-12---10-12-13-------|
G|----------9--------------------------------------|
D|-------------------------------------------------|
A|-------------------------------------------------|
E|-------------------------------------------------|

e|----------------------------------------------------------------------|
B|--13-------13-------13-15-13--13-------13-------13-15-13-------13-15--|
G|-----14-------14-----------------14-------14-------------14-----------|
D|--------15-------15-----------------15-------15-------------15--------|
A|----------------------------------------------------------------------|
E|----------------------------------------------------------------------|

e|--12-------12-------12-15-12-------12-------12-15-12-------12-10-|
B|-----13-------13-------------13-------13-------------13----------|
G|--------14-------14-------------14-------14-------------14-------|
D|-----------------------------------------------------------------|
A|-----------------------------------------------------------------|
E|-----------------------------------------------------------------|

e|----------------------------------------------------------------------|
B|--13-------13-------13-15-13--13-------13-------13-15-13-------13-15--|
G|-----14-------14-----------------14-------14-------------14-----------|
D|--------15-------15-----------------15-------15-------------15--------|
A|----------------------------------------------------------------------|
E|----------------------------------------------------------------------|

e|--12-------12-------12-15-12---------12-10-----10-8~--------|
B|-----13-------13-------------13-----------------------------|
G|--------14-------14-------------14--------------------------|
D|------------------------------------------------------------|
A|------------------------------------------------------------|
E|------------------------------------------------------------|
Login or Register to remove this ad.