A Curious Tale (Secret of Mana) Guitar Tab

Submitted: Jun 27, 2015 by BacardiBreezer

5
Average: 5 (1 vote)
Download | Listen
Game: Secret of Mana
Composer(s): Hiroki Kikuta
Style: Transcription
Series: Mana

This song is also called Tell a Strange Tale

AutoScroll: Slow | Medium | Fast
"A Curious Tale/Tell a Strange Tale"
Secret of Mana
Composed by Hiroki Kikuta
Tabbed by BB
6/24/15

Intro:

e|------0-2----0-2-3-3--2-0-------0----------------------|------0-2----0-2-3-3--2-0-------0---5-------------------|
B|--3---------------------------3---3-1----------------3-|--3---------------------------3---3-----1--3-----3--3---|
G|----2-----------------------------------0--2-----2-----|----2---------------------------------------------------|
D|-------------------------------------------------------|--------------------------------------------------------|
A|-------------------------------------------------------|--------------------------------------------------------|
E|-------------------------------------------------------|--------------------------------------------------------|

Lead:

e|---------------10--8--------|-----------------------------------|
B|--7--8--10------------10--8-|-----------------------------------|
G|----------------------------|--7-9-10---9-7---------------------|
D|----------------------------|-----------------10--------10--7---|
A|----------------------------|---------------------10------------|
E|----------------------------|-----------------------------------|

e|---------------10--8--------|-----------------------------------|
B|--7--8--10------------10--8-|------------8-------6--------------|
G|----------------------------|--7-9-10------9-------9-----7---7--|
D|----------------------------|-----------------------------------|
A|----------------------------|-----------------------------------|
E|----------------------------|-----------------------------------|

e|---------------10--8--------|-----------------------------------|
B|--7--8--10------------10--8-|-----------------------------------|
G|----------------------------|--7-9-10---9-7---------------------|
D|----------------------------|-----------------10--------10--7---|
A|----------------------------|---------------------10------------|
E|----------------------------|-----------------------------------|

e|---------------10--8--10-12-|--12--13--15---13--12---10------10----L----|
B|--7--8--10------------------|---------------------------13--------------|
G|----------------------------|-------------------------------------------|
D|----------------------------|-------------------------------------------|
A|----------------------------|-------------------------------------------|
E|----------------------------|-------------------------------------------|

e|----10-12--------10-12---13-15-13--12---10-8-10----|
B|-13-----------13-----------------------------------|
G|---------------------------------------------------|
D|---------------------------------------------------|
A|---------------------------------------------------|
E|---------------------------------------------------| x2

e|------10--12--|--L--|----10----|--L--|--10--12--13---12---10----------10-------------------------------|--------|-------|
B|--13----------|-----|----------|-----|----------------------------13--------13---11--------------------|--------|--10---|
G|--------------|-----|----------|-----|------------------------------------------------13-------12--12--|---L----|-------|
D|--------------|-----|----------|-----|-----------------------------------------------------------------|--------|-------|
A|--------------|-----|----------|-----|-----------------------------------------------------------------|--------|-------|
E|--------------|-----|----------|-----|-----------------------------------------------------------------|--------|-------|

e|---7-9-10-9-----------------|
B|------------10-8-7----------|
G|-------------------9-6------|
D|----------------------------|
A|----------------------------|
E|----------------------------|
Login or Register to remove this ad.