A Conclusion (Secret of Mana) Guitar Tab

Submitted: Feb 02, 2012 by iamHoustonian

0
Download | Listen
Game: Secret of Mana
Composer(s): Hiroki Kikuta
Style: 2 or more instruments, Transcription
Series: Mana

AutoScroll: Slow | Medium | Fast
A Conclusion
Secret of Mana
Composer: Hiroki Kikuta
Tabbed by: iamHoustonian
Date Tabbed: 2/1/2012





Drop D tuning  DADGBe



Guitar I
Rhythm

e|-----------------------------------------------------------------
B|-----------------------------------------------------------------
G|-----------------------------------------------------------------
D|-----------------------------------------------------------------
A|---7---------------7---------------7---------------7-------------
D|-7---------------7---------------7---------------7---------------
   1 + 2 + 3 + 4 + 1 + 2 + 3 + 4 + 1 + 2 + 3 + 4 + 1 + 2 + 3 + 4 +


e|-----------------------------------------------------------------
B|-----------------------------------------------------------------
G|-----------------------------------------------------------------
D|-------------------------------7---------------------------------
A|---3---------------0---------------7---------------7-------------
D|-3---------------0---------------7---------------7---------------
   1 + 2 + 3 + 4 + 1 + 2 + 3 + 4 + 1 + 2 + 3 + 4 + 1 + 2 + 3 + 4 +







Guitar II
Melody

e|-----------------------------------------------------------------
B|-------------------------10------------------------------10------
G|-----9---12----------9---------------9---12----------9-----------
D|-----------------------------------------------------------------
A|-----------------------------------------------------------------
D|-----------------------------------------------------------------
   1 + 2 + 3 + 4 + 1 + 2 + 3 + 4 + 1 + 2 + 3 + 4 + 1 + 2 + 3 + 4 +


e|-----------------------------------------------------------------
B|-----10--13----------13--15----------10--12----------13--12------
G|-----------------------------------------------------------------
D|-----------------------------------------------------------------
A|-----------------------------------------------------------------
D|-----------------------------------------------------------------
   1 + 2 + 3 + 4 + 1 + 2 + 3 + 4 + 1 + 2 + 3 + 4 + 1 + 2 + 3 + 4 +



Guitar III
Harmony

e|-----------------------------------------------------------------
B|-----------------------------------------------------------------
G|-------------------------2-------------------------------2-------
D|-----2---5-----------2---------------2---5-----------2-----------
A|-----------------------------------------------------------------
D|-----------------------------------------------------------------
   1 + 2 + 3 + 4 + 1 + 2 + 3 + 4 + 1 + 2 + 3 + 4 + 1 + 2 + 3 + 4 +


e|-----------------------------------------------------------------
B|-----------------------------------------------------------------
G|-----2---5-----------5---7-----------2---4-----------5---4-------
D|-----------------------------------------------------------------
A|-----------------------------------------------------------------
D|-----------------------------------------------------------------
   1 + 2 + 3 + 4 + 1 + 2 + 3 + 4 + 1 + 2 + 3 + 4 + 1 + 2 + 3 + 4 +





Login or Register to remove this ad.