Color of the Summer Sky (Super Guitar Bros Version) (Secret of Mana) Guitar Tab

Submitted: Jun 12, 2017 by Coolbreeze (Last updated: Jun 13, 2017)

0
Download | Listen
Game: Secret of Mana
Composer(s): Hiroki Kikuta
Style: 2 or more instruments, Arrangement, Artificial harmonics, Percussion, Transcription
Series: Mana

Click here for a video example.

AutoScroll: Slow | Medium | Fast
				Color of the Summer Sky
				    ~Secret of Mana~

Music by Hiroki Kikuta
Arranged by Super Guitar Bros
Tabbed by Coolbreeze
Tempo = 100

Standard Tuning


Guitar 1

     W                   W                   W                 
E||-------------------|-------------------|-------------------|
B||-------------------|-------------------|-------------------|
G||-------------------|-------------------|-------------------|
D||-------------------|-------------------|-------------------|
A||-------------------|-------------------|-------------------|
E||-------------------|-------------------|-------------------|


  W                   E  E  Q    E  E  E  E     Q.     E  Q    Q     
-------------------|----------------------7--|--L------4--5----9----|
-------------------|--------5----5--7--5-----|----------------------|
-------------------|--4--6-------------------|----------------------|
-------------------|-------------------------|----------------------|
-------------------|-------------------------|----------------------|
-------------------|-------------------------|----------------------|


  H        H           W                   E  E  Q    E  E  E  E   
--7-----------------|-------------------|----------------------7--|
--------------------|-------------------|--------5----5--7--5-----|
--------------------|-------------------|--4--6-------------------|
--------------------|-------------------|-------------------------|
--------------------|-------------------|-------------------------|
--------------------|-------------------|-------------------------|


  Q.     E   E   E  E  S  S    H        H           W                 
--L------4h--5p--4----------|--------------------|-------------------|
--------------------5--5s-7-|--5-----------------|-------------------|
----------------------------|--------------------|-------------------|
----------------------------|--------------------|-------------------|
----------------------------|--------------------|-------------------|
----------------------------|--------------------|-------------------|


  E  E  Q    E  E  E  E     Q.     E  Q    Q       H        H         
----------------------7--|--L------4--5----9----|--7-----------------|
--------5----5--7--5-----|----------------------|--------------------|
--4--6-------------------|----------------------|--------------------|
-------------------------|----------------------|--------------------|
-------------------------|----------------------|--------------------|
-------------------------|----------------------|--------------------|


  W                   E  E  Q    E  E  E  E     Q.     E   E   E  E  S  S  
-------------------|----------------------7--|--L------4h--5p--4----------|
-------------------|--------5----5--7--5-----|--------------------5--5s-7-|
-------------------|--4--6-------------------|----------------------------|
-------------------|-------------------------|----------------------------|
-------------------|-------------------------|----------------------------|
-------------------|-------------------------|----------------------------|


  Q    H        Q       W                    H        Q     E   E   
---------------------|-------------------|--12-------------11--11--|
--L----5-------------|-------------------|-------------------------|
---------------------|-------------------|-------------------------|
---------------------|-------------------|-------------------------|
---------------------|-------------------|-------------------------|
---------------------|-------------------|-------------------------|


   E  E   Q    Q     Q        H        H           H         E   E   E   E   
---L--9--------9----------|---------------------|-----------17--16--12------|
---------12---------10----|--12-----------------|-----------------------14--|
--------------------------|---------------------|---------------------------|
--------------------------|---------------------|---------------------------|
--------------------------|---------------------|---------------------------|
--------------------------|---------------------|---------------------------|


   H        Q     E   E      E  E   Q    E   E   S   E.      H.           Q     
--12-------------11--11--|---L--9--------9--12--12s-14---|--12-----------------|
-------------------------|---------12--------------------|---------------------|
-------------------------|-------------------------------|---------------------|
-------------------------|-------------------------------|---------------------|
-------------------------|-------------------------------|---------------------|
-------------------------|-------------------------------|---------------------|


  W                   Q     E  E  Q     E  E      E  E   E  E  Q.      E   
-------------------|--------------------------|---------------------------|
-------------------|--9----10--9--------------|---------10--9-------------|
-------------------|--------------9-----------|------9---------9------11--|
-------------------|-------------------11--9--|--11-----------------------|
-------------------|--------------------------|---------------------------|
-------------------|--------------------------|---------------------------|


  Q     E  E  Q     E  E      E  E  E   E   E  E   E  E   
--------------------------|---------9--------------------|
--9----10--9--------------|------------12--10--9---------|
--------------9-----------|------9----------------11-----|
-------------------11--9--|--11-----------------------9--|
--------------------------|------------------------------|
--------------------------|------------------------------|


  Q     E  E  Q     E  E      E  E   E  E  Q.      E   
--------------------------|---------------------------|
--9----10--9--------------|---------10--9-------------|
--------------9-----------|------9---------9------11--|
-------------------11--9--|--11-----------------------|
--------------------------|---------------------------|
--------------------------|---------------------------|


  Q     E  E  Q     E  E      E  E  E  E   E  E  E  E   
--------------------------|---------9--7---------------|
--9----10--9--------------|---------------10--9--7-----|
--------------9-----------|------9------------------4--|
-------------------11--9--|--11------------------------|
--------------------------|----------------------------|
--------------------------|----------------------------|


  E  E  Q    E  E  E  E     Q.     E  Q    Q       H        H         
----------------------7--|--L------4--5----9----|--7-----------------|
--------5----5--7--5-----|----------------------|--------------------|
--4--6-------------------|----------------------|--------------------|
-------------------------|----------------------|--------------------|
-------------------------|----------------------|--------------------|
-------------------------|----------------------|--------------------|


  W                   E  E  Q    E  E  E  E     Q.     E  E  T  T S E  S  S  
-------------------|----------------------7--|--L------4--5--4h-5-4---------|
-------------------|--------5----5--7--5-----|----------------------5--5s-7-|
-------------------|--4--6-------------------|------------------------------|
-------------------|-------------------------|------------------------------|
-------------------|-------------------------|------------------------------|
-------------------|-------------------------|------------------------------|


  H        E  E  E    E     E   E  E  Q    Q.        S  S E  Q    E  E  E  E   
-------------------------|------------------------|------------------------7--|
--5-----------5--7--7g9--|--L--10--9--L-----------|----------5----5--7--5-----|
-------------------------|------------------------|--2s-4-6-------------------|
-------------------------|------------------------|---------------------------|
-------------------------|------------------------|---------------------------|
-------------------------|------------------------|---------------------------|


  Q.     E  E  E  S  E.     S  S  Q.     H           W                 
--L------4--5--7--7s-9---|--7h-9p-7---------------|-------------------|
-------------------------|------------------------|-------------------|
-------------------------|------------------------|-------------------|
-------------------------|------------------------|-------------------|
-------------------------|------------------------|-------------------|
-------------------------|------------------------|-------------------|


  E  E  Q    E  E  E  E     Q.     E  E  T  T S E  S  S    Q    H        Q     
----------------------7--|--L------4--5--4h-5-4---------|---------------------|
--------5----5--7--5-----|----------------------5--5s-7-|--L----5-------------|
--4--6-------------------|------------------------------|---------------------|
-------------------------|------------------------------|---------------------|
-------------------------|------------------------------|---------------------|
-------------------------|------------------------------|---------------------|


  W                    H        Q     E   E      E  E   Q    Q     Q     
-------------------|--12-------------11--11--|---L--9--------9----------|
-------------------|-------------------------|---------12---------10----|
-------------------|-------------------------|--------------------------|
-------------------|-------------------------|--------------------------|
-------------------|-------------------------|--------------------------|
-------------------|-------------------------|--------------------------|


   H        H           Q.      E   E   E   E  E      H        Q     E   E   
---------------------|---------17--17--16--12--9--|--12-------------11--11--|
--12-----------------|----------------------------|-------------------------|
---------------------|----------------------------|-------------------------|
---------------------|----------------------------|-------------------------|
---------------------|----------------------------|-------------------------|
---------------------|----------------------------|-------------------------|


   E  E   Q    E   E      Q        T   T  S  Q.     H         
---L--9--------9--12--12g14----|--12h-14-12--L---------------|
---------12--------------------|-----------------------------|
-------------------------------|-----------------------------|
-------------------------------|-----------------------------|
-------------------------------|-----------------------------|
-------------------------------|-----------------------------|


  W                   Q     E  E  Q     E  E      E  E   E  E  Q.      E   
-------------------|--------------------------|---------------------------|
-------------------|--9----10--9--------------|---------10--9-------------|
-------------------|--------------9-----------|------9---------9------11--|
-------------------|-------------------11--9--|--11-----------------------|
-------------------|--------------------------|---------------------------|
-------------------|--------------------------|---------------------------|


  Q     E  E  Q     E  E      E  E  E   E   E  E   E  E   
--------------------------|---------9--------------------|
--9----10--9--------------|------------12--10--9---------|
--------------9-----------|------9----------------11-----|
-------------------11--9--|--11-----------------------9--|
--------------------------|------------------------------|
--------------------------|------------------------------|


  Q     E  E  Q     E  E      E  E   E  E  Q.      E   
--------------------------|---------------------------|
--9----10--9--------------|---------10--9-------------|
--------------9-----------|------9---------9------11--|
-------------------11--9--|--11-----------------------|
--------------------------|---------------------------|
--------------------------|---------------------------|


  Q     E  E  Q     E  E      E  E  E  E   E  E  E    E       W                 
--------------------------|---------9--7-----------------|---------------------|
--9----10--9--------------|---------------10--9--7-------|---------------------|
--------------9-----------|------9-----------------------|---------------------|
-------------------11--9--|--11--------------------------|---------------------|
--------------------------|------------------------------|---------------------|
--------------------------|-------------------------<>7--|--<>L----------------|


  E  S S H.             
---------4------------||
-------7-L------------||
-----4-L-L------------||
----------------------||
----------------------||
----------------------||




Guitar 2

     E  E  E  E  E  E  E  E     E  E  E  E  E  E  E  E   
E||--------0-----------------|--------------------------|
B||-----0-----0--------4-----|-----0-----0--------4-----|
G||-----------------4-----4--|--------6--------4-----4--|
D||--------------------------|--------------------------|
A||--7-----------6-----------|--4-----------6-----------|
E||--------------------------|--------------------------|


  E  E  E  E  E  E  E  E     E  E  E  E  E  E  E  E   
--------0-----------------|--------------------------|
-----0-----0--------4-----|-----0-----0--------4-----|
-----------------4-----4--|--------6--------4-----4--|
--------------------------|--------------------------|
--7-----------6-----------|--4-----------6-----------|
--------------------------|--------------------------|


  E  E  E  E  E  E  E  E     E  E  E  E  E  E  E  E   
--------0-----------------|--------------------------|
-----0-----0--------4-----|-----0-----0--------4-----|
-----------------4-----4--|--------6--------4-----4--|
--------------------------|--------------------------|
--7-----------6-----------|--4-----------6-----------|
--------------------------|--------------------------|


  E  E  E  E  E  E  E  E     E  E  E  E  E  E  E  E   
--------0-----------------|--------------------------|
-----0-----0--------4-----|-----0-----0--------4-----|
-----------------4-----4--|--------6--------4-----4--|
--------------------------|--------------------------|
--7-----------6-----------|--4-----------6-----------|
--------------------------|--------------------------|


  E  E  E  E  E  E  E  E     E  E  E  E  E  E  E  E   
--------0-----------------|--------------------------|
-----0-----0--------4-----|-----0-----0--------4-----|
-----------------4-----4--|--------6--------4-----4--|
--------------------------|--------------------------|
--7-----------6-----------|--4-----------6-----------|
--------------------------|--------------------------|


  E  E  E  E  E  E  E  E     E  E  E  E  E  E  E  E   
--------0-----------------|--------------------------|
-----0-----0--------4-----|-----0-----0--------4-----|
-----------------4-----4--|--------6--------4-----4--|
--------------------------|--------------------------|
--7-----------6-----------|--4-----------6-----------|
--------------------------|--------------------------|


  E  E  E  E  E  E  E  E     E  E  E  E  E  E  E  E   
--------0-----------------|--------------------------|
-----0-----0--------4-----|-----0-----0--------4-----|
-----------------4-----4--|--------6--------4-----4--|
--------------------------|--------------------------|
--7-----------6-----------|--4-----------6-----------|
--------------------------|--------------------------|


  E  E  E  E  E  E  E  E     E  E  E  E  E  E  E  E   
--------0-----------------|--------------------------|
-----0-----0--------4-----|-----0-----0--------4-----|
-----------------4-----4--|--------6--------4-----4--|
--------------------------|--------------------------|
--7-----------6-----------|--4-----------6-----------|
--------------------------|--------------------------|


  E  E  E  E  E  E  E  E     E  E  E  E  E  E  E  E   
--------0-----------------|--------------------------|
-----0-----0--------4-----|-----0-----0--------4-----|
-----------------4-----4--|--------6--------4-----4--|
--------------------------|--------------------------|
--7-----------6-----------|--4-----------6-----------|
--------------------------|--------------------------|


  E  E  E  E  E  E  E  E     E  E  E  E  E  E  E  E   
--------0-----------------|--------------------------|
-----0-----0--------4-----|-----0-----0--------4-----|
-----------------4-----4--|--------6--------4-----4--|
--------------------------|--------------------------|
--7-----------6-----------|--4-----------6-----------|
--------------------------|--------------------------|


  E  E  E  E  E  E  E  E     E  E  E  E  E  E  E  E   
--------0-----------------|--------0-----------------|
--------9-----------7-----|-----0-----0--------7-----|
-----------9--------8-----|--------6-----------8-----|
-----9-----------9-----9--|-----------------9-----9--|
--7-----------6-----------|--4-----------6-----------|
--------------------------|--------------------------|


  E  E  E  E  E  E  E  E     E  E  E  E  E  E  E  E   
--------0-----------------|--------0-----------------|
--------9-----------7-----|-----0-----0--------7-----|
-----------9--------8-----|--------6-----------8-----|
-----9-----------9-----9--|-----------------9-----9--|
--7-----------6-----------|--4-----------6-----------|
--------------------------|--------------------------|


  E  E  E  E  E  E  E  E     E  E  E  E  E  E  E  E   
--------0-----------------|--------0-----------------|
--------9-----------7-----|-----0-----0--------7-----|
-----------9--------8-----|--------6-----------8-----|
-----9-----------9-----9--|-----------------9-----9--|
--7-----------6-----------|--4-----------6-----------|
--------------------------|--------------------------|


  E  E  E  E  E  E  E  E     E  E  E  E  E  E  E  E     E  E  E  E  E  Q    E   
--------0-----------------|--------0-----------------|-------------------------|
--------9-----------7-----|-----0-----0--------7-----|-------------------------|
-----------9--------8-----|--------6-----------8-----|--------------2--1-------|
-----9-----------9-----9--|-----------------9-----9--|-----------2-------------|
--7-----------6-----------|--4-----------6-----------|-----0--2----------------|
--------------------------|--------------------------|--0-------------------0--|


                                                                  ^            
  E  E  E  E  E  Q    E     E  E  E  E  E  Q    E     E  E  E  E  E  E  E  E   
-------------------------|-------------------------|--------------------------|
--------------2--0-------|-------------------------|--------------2--0--------|
----------------------2--|--------------2--1-------|--------------2-----2-----|
-----------2-------------|-----------2-------------|-----------2--2--------4--|
-----0--2----------------|-----0--2----------------|-----0--2-----------------|
--0----------------------|--0-------------------0--|--0-----------------------|


  E  E  E  E  E  Q    E     E  E  E  E  E  Q    E     E  E  E  E  E  Q    E   
-------------------------|-------------------------|-------------------------|
-------------------------|--------------2--0-------|-------------------------|
--------------2--1-------|----------------------2--|--------------2--1-------|
-----------2-------------|-----------2-------------|-----------2-------------|
-----0--2----------------|-----0--2----------------|-----0--2----------------|
--0-------------------0--|--0----------------------|--0-------------------0--|


              ^  v                                    
  E  E  E  E  E  E  E  E     E  E  E  E  E  E  E  E   
--------------2--0--x-----|--------------------------|
--------------2--0--x-----|--------------------------|
--------------2--0--x-----|-----1--x--------2--x-----|
-----------2--------------|-----2--x--------4--x-----|
-----0--2-----------------|-----2--x--------4--x-----|
--0--------------------0--|--0--------0--2--------2--|


  E  E  E  E  E  E  E  E     E  E  E  E  E  E  E  E   
--------------------------|--------------------------|
--------------------------|--------------------------|
-----4--x--------6--x-----|-----1--x--------2--x-----|
-----6--x--------7--x-----|-----2--x--------4--x-----|
-----6--x--------7--x-----|-----2--x--------4--x-----|
--4--------4--5--------5--|--0--------0--2--------2--|


  E  E  E  E  E  E  E  E     E  E  E  E  E  E  E  E   
--------------------------|--------------------------|
--------------------------|--------------------------|
-----4--x--------6--x-----|-----1--x--------2--x-----|
-----6--x--------7--x-----|-----2--x--------4--x-----|
-----6--x--------7--x-----|-----2--x--------4--x-----|
--4--------4--5--------5--|--0--------0--2--------2--|


  E  E  E  E  E  E  E  E     E  E  E  E  E  E  E  E   
--------------------------|--------------------------|
--------------------------|--------------------------|
-----4--x--------6--x-----|-----1--x--------2--x-----|
-----6--x--------7--x-----|-----2--x--------4--x-----|
-----6--x--------7--x-----|-----2--x--------4--x-----|
--4--------4--5--------5--|--0--------0--2--------2--|


  E  E  E  E  E  E  E  E     E  E  E  E  E  E  E  E   
--------------------------|--------------------------|
--------------------------|--------------------------|
-----4--x--------6--x-----|-----1--x--------2--x-----|
-----6--x--------7--x-----|-----2--x--------4--x-----|
-----6--x--------7--x-----|-----2--x--------4--x-----|
--4--------4--5--------5--|--0--------0--2--------2--|


  E  E  E  E  E  E  E  E     E  E  E  E  E  E  E  E   
--------------------------|--------------------------|
--------------------------|--------------------------|
-----4--x--------6--x-----|-----1--x--------2--x-----|
-----6--x--------7--x-----|-----2--x--------4--x-----|
-----6--x--------7--x-----|-----2--x--------4--x-----|
--4--------4--5--------5--|--0--------0--2--------2--|


  E  E  E  E  E  E  E  E     E  E  E  E  E  E  E  E   
--------------------------|--------------------------|
--------------------------|--------------------------|
-----4--x--------6--x-----|-----1--x--------2--x-----|
-----6--x--------7--x-----|-----2--x--------4--x-----|
-----6--x--------7--x-----|-----2--x--------4--x-----|
--4--------4--5--------5--|--0--------0--2--------2--|


  E  E  E  E  E  E  E  E     E  E  E  E  E  E  E  E   
--------------------------|--------------------------|
--------------------------|--------------------------|
-----4--x--------6--x-----|-----1--x--------2--x-----|
-----6--x--------7--x-----|-----2--x--------4--x-----|
-----6--x--------7--x-----|-----2--x--------4--x-----|
--4--------4--5--------5--|--0--------0--2--------2--|


                             ^  v     v  ^  v     v   
  E  E  E  E  E  E  E  E     E  E  E  E  E  E  E  E   
--------------------------|--------------------------|
--------------------------|--------------------------|
-----4--x--------x--x-----|--1--1--x--1--2--2--x--2--|
-----6--x--------x--x-----|--2--2--x--2--4--4--x--4--|
-----6--x--------x--x--0--|--2--2--x--2--4--4--x--4--|
--4--------4--5-----------|--------------------------|


  ^  v     v  ^  v     v     ^  v     v  ^  v     v   
  E  E  E  E  E  E  E  E     E  E  E  E  E  E  E  E   
--------------------------|--------------------------|
--------------------------|--------------------------|
--4--4--x--4--6--6--x--6--|--1--1--x--1--2--2--x--2--|
--6--6--x--6--7--7--x--7--|--2--2--x--2--4--4--x--4--|
--6--6--x--6--7--7--x--7--|--2--2--x--2--4--4--x--4--|
--------------------------|--------------------------|


  ^  v     v  ^  v     v     ^  v     v  ^  v     v   
  E  E  E  E  E  E  E  E     E  E  E  E  E  E  E  E   
--------------------------|--------------------------|
--------------------------|--------------------------|
--4--4--x--4--6--6--x--6--|--1--1--x--1--2--2--x--2--|
--6--6--x--6--7--7--x--7--|--2--2--x--2--4--4--x--4--|
--6--6--x--6--7--7--x--7--|--2--2--x--2--4--4--x--4--|
--------------------------|--------------------------|


  ^  v     v  ^  v     v     ^  v     v  ^  v     v     ^  v     v  ^    ^  v   
  E  E  E  E  E  E  E  E     E  E  E  E  E  E  E  E     E  E  E  E  Q    E  E   
--------------------------|--------------------------|-------------------------|
--------------------------|--------------------------|-------------------------|
--4--4--x--4--6--6--x--6--|--1--1--x--1--2--2--x--2--|--4--4--x--4--6----6--6--|
--6--6--x--6--7--7--x--7--|--2--2--x--2--4--4--x--4--|--6--6--x--6--7----7--7--|
--6--6--x--6--7--7--x--7--|--2--2--x--2--4--4--x--4--|--6--6--x--6--7----7--7--|
--------------------------|--------------------------|-------------------------|


  ^    ^  v  ^    ^  v     ^    ^  v  ^    ^  v     ^    ^  v  ^    ^  v   
  Q    E  E  Q    E  E     Q    E  E  Q    E  E     Q    E  E  Q    E  E   
------------------------|------------------------|------------------------|
------------------------|------------------------|------------------------|
--1----x--x--2----x--x--|--4----x--x--6----x--x--|--1----x--x--2----x--x--|
--2----x--x--4----x--x--|--6----x--x--7----x--x--|--2----x--x--4----x--x--|
--2----x--x--4----x--x--|--6----x--x--7----x--x--|--2----x--x--4----x--x--|
------------------------|------------------------|------------------------|


  ^    ^  v  ^    ^  v                                                         
  Q    E  E  Q    E  E     E  E  E  E  E  E  E  E     E  E  E  E  E  E  E  E   
------------------------|--------0-----------------|--------------------------|
------------------------|-----0-----0--------4-----|-----0-----0--------4-----|
--4----x--x--6----x--x--|-----------------4-----4--|--------6--------4-----4--|
--6----x--x--7----x--x--|--------------------------|--------------------------|
--6----x--x--7----x--x--|--7-----------6-----------|--4-----------6-----------|
------------------------|--------------------------|--------------------------|


  E  E  E  E  E  E  E  E     E  E  E  E  E  E  E  E     W                 
--------0-----------------|--------------------------|-------------------|
-----0-----0--------4-----|-----0-----0--------4-----|-------------------|
-----------------4-----4--|--------6--------4-----4--|--L----------------|
--------------------------|--------------------------|-------------------|
--7-----------6-----------|--4-----------6-----------|-------------------|
--------------------------|--------------------------|-------------------|


  ^                  
  W                  
--0----------------||
--0----------------||
--1----------------||
--2----------------||
--2----------------||
--0----------------||
Login or Register to remove this ad.