Ads

Always Together (Secret of Mana) Bass Tab

Submitted: Sep 13, 2010 by auriplane (Last updated: Sep 13, 2010)

0
Download | Listen
Game: Secret of Mana
Composer(s): Hiroki Kikuta
Style: Transcription
Series: Mana

This song is also called Field Theme 1

AutoScroll: Slow | Medium | Fast
               Secret of Mana - Always Together BASS TAB
                         Song by Hiroki Kikuta

                 Tabbed by auriplane ([email protected])
                              on 9/13/2010


Four-string bass, standard tuning.  The main part goes like this:

    G |------------------------|------------------------|
    D |------------------------|7--7-----7--8--8--9--10-|
    A |8--8-----8--10-10----10-|------------------------|
    E |------------------------|------------------------|


    G |------------------------|------------------------|
    D |---------------------7--|---7-----7--8--7--------|
    A |8--8-----8--10-10-------|------------------10----|
    E |------------------------|---------------------8--|

That plays eight times, but the last note of the 8th time around is 
different, like this:

    G                           ------------------------|
    D                           ---7-----7--8--7--------|
    A                           ------------------10----|
    E                           ---------------------10-|


Then the bridge goes like this:

    G |------------------------|------------------------|
    D |------------------------|------------------------|
    A |------------------------|------------------------|
    E |8-----8--8--8-----8--8--|8-----8--8--8-----8--8--|

    G |------------------------|------------------------|
    D |------------------------|---10-------10----------|
    A |------------------------|------------------------|
    E |8-----8--8--8-----8--8--|------------------------|

    G |------------------------|------------------------|
    D |------------------------|------------------------|
    A |------------------------|------------------------|
    E |8-----8--8--8-----8--8--|8-----8--8--8-----8--9--|

    G |------------------------|------------------------|
    D |------------------------|---12-------12----------|
    A |------------------------|------------------------|
    E |10----10-10-10----10-10-|------------------------|

And back to the beginning of the song, and repeat.

Login or Register to remove this ad.