Ads

Stitcher's Sorrow (Sea of Thieves) Mandolin Tab

Submitted: Jun 27, 2022 by Chaddyfynn (Last updated: Jun 27, 2022)

0
Download | No audio :(
Game: Sea of Thieves
Style: Fingerstyle

AutoScroll: Slow | Medium | Fast
E-----------------------------|------------------------------|--------------------------------|
A-----------------------------|------------------------------|--------------------------------|
D----6-------4---6------------|------------------------------|----6-------4---6---------------|
G-6---------------------------|--6-8-9-----8-6---------------|-6------------------------------|
-
E-----------------------------|------------------------------|--------------------------------|
A-----------------------------|------------------------------|--------------------------------|
D-----------------------------|------------------------------|--------------------------------|
G--6-8-9-----11-6-------------|--6--2----4--6----9--8----6-4-|--1--4----6--8----11--9----8--6-|

E--------------------------=--|------------------------------|
A-----------------------------|------------------------------|
D-----------------------------|------------------------------|
G-1--6------9---6-8----9-8----|-4-8----6-4---1-6-------------|
Login or Register to remove this ad.