Ads

Main Theme (Scott Pilgrim vs. the World: The Game) Guitar Tab

Submitted: Jan 18, 2011 by Salvadoreno89 (Last updated: Dec 23, 2013)

5
Average: 5 (4 votes)
Download | Listen
Game: Scott Pilgrim vs. the World: The Game
Composer(s): Anamanaguchi
Style: Alternate picking, Transcription

AutoScroll: Slow | Medium | Fast
The Title (Scott Pilgrim's Theme)
Scott Pilgrim vs The World: The Game
Anamanaguchi
Salvadoreno89
Jan, 18th, 2011

e-15--14--------------------------------
B---------17--15------------------------
G-----------------12-16-14-12-------12--
D-----------------------------14-16-----
A---------------------------------------
E---------------------------------------

e---------------------------------------
B-----13--------------------------------
G-16------16-------12--12-16-14-12------
D------------14-16-----------------14-16
A---------------------------------------
E---------------------------------------

e---------------------------------------
B--------------------13-15-13-15p13-----
G-12-16-----12-14-16----------------16--
D--------14-----------------------------
A---------------------------------------
E---------------------------------------

e---------------------------------------
B------------------------------17-15-13-
G-14--12-16-14-12-------12-16-----------
D-----------------14-16-----------------
A---------------------------------------
E---------------------------------------

e---------------------------------------
B-12-12--13p12--------------------------
G--------------14--12-16-14-12-------12-
D------------------------------14-16----
A---------------------------------------
E---------------------------------------

e-------------------------------15-15---
B---------------------------------------
G-16--12--------12----16-14-12----------
D--------16--------16-------------------
A-----------15--------------------------
E---------------------------------------

e-15-15---------------------------------
B---------------------------------------
G-----------12-16-14-12-------12-16-----
D-----------------------14-16-----------
A---------------------------------------
E---------------------------------------

e---------------------------------------
B----------------------17---------------
G-12-16-14-12-------12------16----------
D-------------14-16-------------16--12--
A---------------------------------------
E---------------------------------------

e---------------------------------------
B---------------------15-17----15-17----
G--12--14--16------16-------16-------16-
D---------------17----------------------
A---------------------------------------
E---------------------------------------


e---------------------------------------
B--------15-17----15-17-----------15-17-
G-----16-------16-------16-----16-------
D--17-----------------------------------
A---------------------------------------
E---------------------------------------

e---------------------------------------
B--------------------------13-----------
G-12-16-14-12-------12--16----16-14-16--
D-------------14-16---------------------
A---------------------------------------
E---------------------------------------

e---------------------------------------
B---------------------------13----------
G-12-16-14-12-------12--16-----16-14----
D-------------14-16------------------16-
A---------------------------------------
E---------------------------------------

e-15----17----19----17------------------
B----15----15----15----15--(x2)---------
G---------------------------------------
D---------------------------------------
A---------------------------------------
E---------------------------------------

e---------------------------------------
B----------------------15---------------
G-1212----1414----1616----14----1212----
D------12------12------------16------12-
A---------------------------------------
E---------------------------------------

e---------------------------------------
B---------------------------------------
G-1414----12121212121212*---------------
D------12-------------------------------
A---------------------------------------
E---------------------------------------

*Start to mute as the song fades away. 
That's it!!
Have fun!! :)
Login or Register to remove this ad.

1 comment on Main Theme

Great!

5

Thanks! Just... Awesome!