Ads

Classmate (School Days) Guitar Tab

Submitted: May 30, 2010 by Ryan Amparo (Last updated: May 30, 2010)

4
Average: 4 (1 vote)
Download | Listen
Game: School Days
Composer(s): Okubo Kaoru
Style: Transcription

AutoScroll: Slow | Medium | Fast
Classmate
from School Days
for Guitar
Composer: Okubo Kaoru
Transcriptionist: Ryan Amparo

Legend: E = Eighth Note
    Q = Quarter Note
    H = Half Note
    W = Whole Note
    . = dotted note
    = = Tied Note

125 BPM

4/4

   E  E      E  Q    E  E  Q    E     E  E  E  E  Q    E  E
E--------||---------------------6--|--8--6--13-8--6----------|
B--------||------------------------|-------------------------|
G--2--2--||·-2-------2-----3-------|-------------------2--2--|
D--3--3--||·-3-------3-----4-------|-------------------3--3--|
A--3--3--||--3-------3-----4-------|-------------------3--3--|
E--1--1--||--1-------1-----2-------|-------------------1--1--|
   <------F maj------>   Gb maj                        F maj

                     _______________________  __________________________
                    |1.                     ||2.
   E  Q    E  E  Q.    Q    Q    Q    E  E      E  E  E  E  E  E  E  E
E-------------------|--6----1---------------||-----6-----9-----13-------|
B-------------------|------------2----------||--------------------------|
G--2-------2-----3--|-----------------2--2-·||--3-----6-----10----4--4--|
D--3-------3-----4--|-----------------3--3-·||--------------------5--5--|
A--3-------3-----4--|-----------------3--3--||--------------------5--5--|
E--1-------1-----2--|-----------------1--1--||--------------------3--3--|
   <-F maj->   Gb maj                 F maj                       G maj

     E  Q    E  E  Q    E     E  E  E  E  Q    E  E     E  Q    E  Q.
E||---------------------8--|--10-8--15-10-8----------|----------------|
B||------------------------|-------------------------|----------------|
G||·-4-------4-----5-------|-------------------4--4--|--4-------4--5--|
D||·-5-------5-----6-------|-------------------5--5--|--5-------5--6--|
A||--5-------5-----6-------|-------------------5--5--|--5-------5--6--|
E||--3-------3-----4-------|-------------------3--3--|--3-------3--4--|
   <--G maj-->   Ab maj                        <------F maj----->Ab maj

 _______________________  _______________________
|1.                     ||2.
   Q    Q    Q    E  E      E  E  E  E  E  E  Q     E  E  E  E  E  E  E  E
E--8----3---------------||-----8-----11----15----|--------------------------|
B------------4----------||--------------------2==|==2--3-----3-----2-----2--|
G-----------------4--4-·||--5-----8-----12----2==|==2--3-----3-----2-----2--|
D-----------------5--5-·||--------------------2==|==2--3-----3-----2-----2--|
A-----------------5--5--||--------------------0--|--0--1-----1-----0-----0--|
E-----------------3--3--||-----------------------|--------------------------|
                  G maj                       <A maj>  <Bb maj>    <A maj>

   E  E  E  E  E  E  E  E     E  E  E  E  E  Q    E     E  E  E  E  E  E  Q
E--------9--4--------------|----------------------10-|--8--6--5--3--1--------|
B-----3--------2-----2--2--|--2--------2-----3-------|--------------------2==|
G-----3--------------2--2--|--2--5-----2-----3-------|--------------------2==|
D-----3--------------2--2--|--2--6-----2-----3-------|--------------------2==|
A-----1--------------0--0--|--0--6-----0-----1-------|--------------------0==|
E--------------------------|-----4-------------------|-----------------------|
    Bb maj          <--A maj-->Ab maj A maj Bb maj                        A maj

   E  E  E  E  E  E  E  E     E  E  E  E  E  E  E  E     E  E  E  E  E  Q.
E--------------------------|-----------4--9-----------|--------------------|
B==2--3-----3-----2-----2--|-----3--2-----------------|--------------------|
G==2--3-----3-----2-----2--|-----3--------------6--6--|--6--5-----4-----3==|
D==2--3-----3-----2-----2--|-----3--------------7--7--|--7--6-----5-----4==|
A==0--1-----1-----0-----0--|-----1--------------7--7--|--7--6-----5-----4==|
E--------------------------|--------------------5--5--|--5--4-----3-----2==|
      <-Bb maj    <A maj>                      <--A maj-->Ab maj G maj Gb maj

   H.           E  E     E  E  E  E  E  E     W
E---------------------|--------------------|-----|
B---------------------|--------------------|-----|
G==3------------6--6--|--6--5-----4-----3==|==3--|
D==4------------7--7--|--7--6-----5-----4==|==4--|
A==4------------7--7--|--7--6-----5-----4==|==4--|
E==2------------5--5--|--5--4-----3-----2==|==2--|
               <--A maj-->Ab maj G maj  Gb maj
Login or Register to remove this ad.

1 comment on Classmate

Hentai game and Final Fantasy

Hentai game and Final Fantasy soundtracks get tabbed more quickly than Ace Combat and Shadow Hearts soundtrack

what is this world coming to