Zetsubou Sensei Ekaki Uta (Sayonara Zetsubou Sensei) Guitar Tab

Submitted: Oct 19, 2011 by JordanVS (Last updated: Oct 19, 2011)

4.5
Average: 4.5 (2 votes)
Download | Listen
Game: Sayonara Zetsubou Sensei
Composer(s): Tomoki Hasegawa
Style: Arrangement, Fingerstyle

This song is also called Drawing Song

AutoScroll: Slow | Medium | Fast
Zetsubou Sensei Ekaki Uta
Zoku Sayonara Zetsubou Sensei
Tabbed By JordanVS



     Q    Q    Q    Q       Q.     E  Q    E  E     E  Q    E  E  E  E  E   
E||----------------------|--3------1--0----------|----------0--1--1--------|
B||----------------------|-----------------1--1--|--3--3-------------3--3--|
G||----------------------|------------0----------|-------------------------|
D||--5----3----2----0----|-----------------------|--0----------0-----------|
A||------------0----2----|--3--------------3-----|-------------------------|
E||--3-------------------|-----------------------|-------------------------|


  Q    Q    Q.     E     Q    Q    H           Q.     E  Q    E  E   
-------------------0--|---------------------|--3------1--0----------|
--0----1----3---------|--1---------1--------|-----------------1--1--|
--0----0----4---------|-------0----0--------|------------0----------|
--0----2----5---------|------------2--------|-----------------------|
-------3--------------|--3------------------|--3--------------3-----|
--3---------3---------|---------------------|-----------------------|


  E  Q    E  E  E  E  E     Q    Q    Q.     E     Q    Q    H         
----------0--1--1--------|-------------------0--|------------0--------|
--3--3-------------3--3--|--0----1----3---------|--1---------1--------|
-------------------------|--0----0----4---------|-------0----0--------|
--0----------0-----------|--0----2----5---------|------------2--------|
-------------------------|-------3--------------|--3------------------|
-------------------------|--3---------3---------|---------------------|


  E  E  E  E  H           Q.     E  Q    Q       E  E  E  E  H         
--3--3--3--3-----------|---------0------------|--3--3--3--3-----------|
--3--3--3--3-----------|--3---------3---------|--3--3--3--3-----------|
--4--4--4--4-----------|--4-------------------|--4--4--4--4-----------|
--------------0--------|--5--------------0----|-----------------------|
-----------------------|----------------------|-----------------------|
--3--------------------|--3---------3---------|--3-----------3--------|


  Q.     E  H           Q    E  E  Q    Q       Q    E  E  H         
---------0-----------|-----------------------|-------------0--------|
--3---------3--------|--1----1--1--0---------|--1----1--3--1--------|
--4------------------|--2----2----------0----|-------0-----0--------|
--5------------------|----------2--0---------|--2----2--3--2--------|
--5------------------|------------------2----|--3----------3--------|
--3---------3--------|--1----------3---------|----------------------|


  E  Q    E  Q    Q       E  Q    E  H           E  E  E  E  Q    E  E   
----------0--1---------|--0--0----1--3--------|--1--1--1--1--1----3--5--|
--3--3------------3----|-------------0--------|-------------------------|
----------0--2---------|--0--0----2-----------|--2--2--2--2--2----------|
--3--3-------0----3----|-------------2--------|--------------3----3-----|
--5--------------------|----------------------|-------------------------|
-----------------------|--0-------------------|--1----------------------|


  Q    Q    H           E  Q    E  Q    Q       E  E  E  E  Q    Q     
--3------------------|--0--0----0--0---------|--3--3--3--3--3---------|
---------------------|--1--1----1--1---------|--3--3--3--3--3---------|
--0---------0--------|--0--0----0--0---------|--4--4--4--4--4---------|
-------3-------------|-------------2---------|--5-----------5---------|
---------------------|--3----------3---------|--5---------------------|
---------------------|-----------------------|--3---------------------|


  E  Q    E  E  E  E  E     E  E  E  E  Q.     E     Q    Q    H         
-------------------------|--3--------3--3------0--|---------------------|
----------1--0--0--------|--3-----3--3--3---------|--1---------1--------|
--2--2-------------0--0--|--4--4--4--4--4---------|-------0----0--------|
----------2--0--0--------|--5--5--5--5--5---------|------------2--------|
--3--3-------------2--2--|--5--5--5-----5---------|--3---------3--------|
--1----------3-----------|--3--3--------3---------|---------------------|


  E  E  E  E  Q    Q       H         Q    Q      
--3--3--3--3--1---------|------------8---------||
--3--3--3--3-------3----|--1---------8---------||
--4--4--4--4--2---------|------------9---------||
-------------------3----|--2--------10---------||
------------------------|-----------10---------||
--3-----------3---------|------------8---------||




Duration Legend
---------------
W - whole
H - half
Q - quarter
E - 8th
S - 16th
T - 32nd
X - 64th
. - note dotted
|-n-|  - n-tuplets


Tablature Legend
----------------
L - tied note
x - dead note
g - grace note
(n) - ghost note
> - accentuded note
NH - natural harmonic
AH - artificial harmonic
TH - tapped harmonic
SH - semi harmonic
PH - pitch harmonic
h - hammer on
p - pull off
b - bend
br - bendRelease
pb - preBend
pbr - preBendRelease
brb - bendReleaseBend
\n/ - tremolo bar dip
\n - tremolo bar dive
-/n - tremolo bar Release up
/n\ - tremolo bar inverted dip
/n - tremolo bar return
-\n - tremolo bar Release down
S - shift slide
s - legato slide
/ -  slide into from below or out of upwards
\ -  slide into from above or out of downwards
~ - vibrato
W - wide vibrato
tr - trill
TP - tremolo picking
T - tapping
S - slap
P - pop
< - fade in
^ - brush up
v - brush down
Login or Register to remove this ad.

1 comment on Zetsubou Sensei Ekaki Uta

Neat.

Neat.