Ads

Kuusou Rumba (Sayonara Zetsubou Sensei) Guitar Tab

Submitted: Nov 19, 2013 by kakesama

0
Download | Listen
Game: Sayonara Zetsubou Sensei
Composer(s): Tomoki Hasegawa
Style: Arrangement, Fingerstyle

AutoScroll: Slow | Medium | Fast
Kuusou rumba


e||----------------(play 4 times)||---------------(play 3 times)||
B||*----------------------------*||*---------------------------*||
G||------------------------------||--2-2-2-2-2-2-2-2-2-2-----2--||
D||--0-----0-----0-----0-----0---||--0-----0-----0-----0--5--0--||
A||*-----------------------3----*||*----------------------3----*||
E||------------------------------||-----------------------------||

|--5-5-5-5-5-5-5-5-5-5--3--5--||--------------(-play 2 times)||
|-----------------------------||*---------------------------*||
|--2-2-2-2-2-2-2-2-2-2--0--2--||--2-2-2-2-2-2-2-2-2-2-----2--||
|--0-----0-----0-----0-----0--||--0-----0-----0-----0--5--0--||
|-----------------------3-----||*----------------------3----*||
|-----------------------------||-----------------------------||

|-----------------------------|--5-5-5-5-5-5-5-5-5-5-----5--|
|-----------------------------|-----------------------8-----|
|--2-2-2-2-2-2-2-2-2-2--0--2--|--7-7-7-7-7-7-7-7-7-7--5--7--|
|--3-----3-----3-----3--5--3--|--0-----0-----0-----0--------|
|-----------------------3-----|-----------------------------|
|-----------------------------|-----------------------------|

|-----------------------------------------------|
|----------------8------------------------------|
|--2-----4---5-----9-9---9---7-9---5-----2-2----|
|--0-0-0-0-0-0---5-5-5---8-8-8-8-------------5--|
|-----------------------------------------------|
|----------------------------------3-3-3-3-3----|

|---------------------------------------------------------|
|----------------8----------------------------------------|
|--2-----4---5-----9-9---9---7-9----0------------0--0--0--|
|--0-0-0-0-0-0---5-5-5---8-8-8-8---10--7--10--7-----------|
|---------------------------------------------8-----------|
|---------------------------------------------------------|

|-------------------------------|-------------------------------|
|--------------------------0-0--|--0-----0----------------------|
|--9-9-9-9-9-9-9-9-9-7-5-7-9-9--|--9-9-9-9-9-9-9-9-9-7-5-7------|
|-------------------------------|--------------------------7-7--|
|--0-----0-------------0--------|--0-----0-------------0--------|
|-------------------------------|--------------------------0-0--|


|-------------------------------|---------------------------|
|--------------------------0-0--|---------------------------|
|--9-9-9-9-9-9-9-9-9-7-5-7-9-9--|--12-12-12--9--7--7-7-7-7--|
|-------------------------------|--10-10----10-----9-9-9-9--|
|--0-----0-------------0--------|---------------------------|
|-------------------------------|---------------------------|


|-----------------------------------------------|
|----------------8------------------------------|
|--2-----4---5-----9-9---9---7-9---5-----2-2----|
|--0-0-0-0-0-0---5-5-5---8-8-8-8-------------5--|
|-----------------------------------------------|
|----------------------------------3-3-3-3-3----|

|---------------------------------------------------------|
|----------------8----------------------------------------|
|--2-----4---5-----9-9---9---7-9----0------------0--0--0--|
|--0-0-0-0-0-0---5-5-5---8-8-8-8---10--7--10--7-----------|
|---------------------------------------------8-----------|
|---------------------------------------------------------|


||------------------(play 2 times)||-------------------------------|
||*------------------------------*||-------------------------------|
||--------------------------------||--2-2---2-2-2---2-2-2---2---2--|
||---0-0---0-0-0---0-0-0---0---0--||--0-----0-------0---------5----|
||*--------------------------3---*||--------------------------3----|
||--------------------------------||-------------------------------|

|--5-5---5-5-5---5-5-5---5---------|
|----------------------------------|
|--2-2---2-2-2---2-2-2---2---12/3--|
|--0-----0-------0-----------------|
|-----------------------------9/1--|
|----------------------------------|

|-----------------------------------------------|
|----------------8------------------------------|
|--2-----4---5-----9-9---9---7-9---5-----2-2----|
|--0-0-0-0-0-0---5-5-5---8-8-8-8-------------5--|
|-----------------------------------------------|
|----------------------------------3-3-3-3-3----|

|---------------------------------------------------------|
|----------------8----------------------------------------|
|--2-----4---5-----9-9---9---7-9----0------------0--0--0--|
|--0-0-0-0-0-0---5-5-5---8-8-8-8---10--7--10--7-----------|
|---------------------------------------------8-----------|
|---------------------------------------------------------|

|-------------------------------|-------------------------------|
|--------------------------0-0--|--0-----0----------------------|
|--9-9-9-9-9-9-9-9-9-7-5-7-9-9--|--9-9-9-9-9-9-9-9-9-7-5-7------|
|-------------------------------|--------------------------7-7--|
|--0-----0-------------0--------|--0-----0-------------0--------|
|-------------------------------|--------------------------0-0--|

|-------------------------------|---------------------------|
|--------------------------0-0--|---------------------------|
|--9-9-9-9-9-9-9-9-9-7-5-7-9-9--|--12-12-12--9--7--7-7-7-7--|
|-------------------------------|--10-10----10-----9-9-9-9--|
|--0-----0-------------0--------|---------------------------|
|-------------------------------|---------------------------|

|-------------------------------|-------------------------------|
|--------------------------0-0--|--0-----0----------------------|
|--9-9-9-9-9-9-9-9-9-7-5-7-9-9--|--9-9-9-9-9-9-9-9-9-7-5-7------|
|-------------------------------|--------------------------7-7--|
|--0-----0-------------0--------|--0-----0-------------0--------|
|-------------------------------|--------------------------0-0--|

|-------------------------------|-----------------------------|
|--------------------------0-0--|-----------------------------|
|--9-9-9-9-9-9-9-9-9-7-5-7-9-9--|--12-12-12--9--7--7-7-7-7~~--|
|-------------------------------|--10-10----10-----9-9-9-9~~--|
|--0-----0-------------0--------|-----------------------------|
|-------------------------------|-----------------------------|
Login or Register to remove this ad.