Ads

Garage (Saints Row: The Third) Guitar Tab

Submitted: Sep 02, 2013 by

4
Average: 4 (1 vote)
Download | Listen
Game: Saints Row: The Third
Composer(s): Malcolm Kirby Jr
Style: Transcription

AutoScroll: Slow | Medium | Fast
e--1----------------------------------------
B----4-4-2-2-1-1----------------------------
G------------------3-3-1-1--0-0-------------
D-------------------------------3-3---------
A-------------------------------------------
E-------------------------------------------

e--1----------------------------------------
B----4-4-2-2-1-1----------------------------
G------------------3------------------------
D-------------------------------------------
A-------------------------------------------
E-------------------------------------------

e-------------------------------------------
B-------------------------------------------
G---0-1---0-1---0-1---0-1-------------------
D--3-----3-----3-----3----------------------
A-------------------------------------------
E-------------------------------------------

e--1----1----1------------------------------
B-------------------------------------------
G-------------------------------------------
D-------------------------------------------
A-------------------------------------------
E-------------------------------------------
Login or Register to remove this ad.