Ads

Blue Dream (Saint Seiya) Guitar Tab

Submitted: Feb 17, 2015 by Bessem

4.666665
Average: 4.7 (3 votes)
Download | Listen
Game: Saint Seiya
Composer(s): Seiji Yokoyama
Style: Arrangement, Fingerstyle

AutoScroll: Slow | Medium | Fast
Piste 1

     E  E  E  E  E  E  E  E     E  S S S S E  E  E  E  E   
E||--------------0-----------|--0-------------------------|
B||--------2-----------0-----|-----3-1---3----1-----------|
G||--2--------------------0--|---------2---2--------------|
D||-----2-----2-----2--------|-------------3-----2-----2--|
A||--0-----------------------|-----3----------------------|
E||--------------3-----------|--1-------------------0-----|


  E  E  E  E  E  E  E  E     E  E  E  E  E  E  S S E   
--0-----------0-----------|---------------------------|
-----3--1--------3--0-----|-----------------1---------|
-----------2--------0--0--|--2--------0--2-----2-4-0--|
--------3-----------------|--------3---------------0--|
-----0-----0-----2-----2--|-----3---------------------|
--1-----------0-----------|--1-----------------3------|


  E  E  E  E  E  E  E  E     E  S S S S E  E  E  E  E   
--------------0-----------|--0-------------------------|
--------2-----------0-----|-----3-1---3----------------|
--2--------------------2--|---------2---2--------------|
-----2-----2-----2--------|-------------------3--------|
--0-----------------------|-----3----------3--------2--|
--------------3-----------|--1----------1--------0-----|


  E  E  E  S S E  E  E  E     E  E  E  E  E  E  S  S E   
---------------------------|----------------------------|
-------------0-1--3--0-----|-----------------1----------|
-----0--2------------0--0--|--2--------0--2-----2h-4-0--|
--3-----3------------------|--------3----------------0--|
-----0-----0------2-----2--|-----3----------------------|
--1------------0-----------|--1-----------------3-------|


                     ^                                  
  E  E  E  E  E  S S E  E     E  S S E  E  E  E  E  E   
---------------------------|--1----0-------0--------0--|
--------1-----3--0---------|------------3--------1-----|
--2-----2------------0-----|------------------0--------|
-----2-----2-------2-------|---------3-----------------|
--0--------------2------2--|-----3---------3-----------|
--------------0------------|--1------------------------|


  E  E  E  E  E  S S E  E     E  E  E  E  E  E  E  E   
--1-----0------------------|--------------------------|
-----------3--3----1----3--|--0--------------------2--|
--------3------------0-----|-----------0--------2-----|
-----3-----3-----0------0--|--------2--------2--------|
--1------------------------|-----2--------0-----------|
--------------3------------|--0-----------------------|


  E  E  E  S S E  E  E  E     E  S S E  E  E  E  E  E   
-------------0-------0--1--|--5----3----1--------------|
-----------3---------2-----|---------3-----3--------3--|
-----2--2---------2-----2--|-----2------2--------4--0--|
--0------------------------|------------------5--------|
---------------4-----------|--3------------2-----------|
---------------------------|---------------------------|


  E  S S E  E  E  E  E  E     E  E  E  E  E  E  S S E   
--5----3----1--0-----------|----------------------0----|
---------------------1-----|--3-----------------3---1--|
-----0---3--0--------2-----|--------0------------------|
------------------2-----2--|-----0-----0-----0------2--|
--1------------0-----------|--------------------0------|
---------------------------|--3-----------3------------|


  E  E  E  S S E  E  E  E     E  S. T E  E  E  E  E  S S  
-------------0-------0--1--|--5-----3----1---------------|
-----------3---------2-----|----------1-----3-----0--3---|
-----2--2---------2-----2--|-----2-------2-----0-------0-|
--0------------------------|-----------------------------|
---------------4-----------|--3-------------2------------|
---------------------------|-----------------------------|


  E  S S E  E  E  E  Q       E  E  E  E  E  E  E  E     W                  
--5----3----1--0----------|-----------------------0--|--2----------------||
---------------------1----|--3-----------------3-----|--3----------------||
---------3-----------2----|--2--------------2--------|--2----------------||
-----3------3-----2-------|--0-----0--2--4-----------|--0----------------||
--1------------0----------|-----0--------------------|-------------------||
--------------------------|--------------------------|-------------------||
Login or Register to remove this ad.