Ads

Star Locket Melody (Sailor Moon) Guitar Tab

Submitted: Oct 16, 2019 by guitarsvd (Last updated: Nov 11, 2019)

5
Average: 5 (3 votes)
Download | No audio :(
Game: Sailor Moon
Composer(s): Takanori Arisawa
Style: Arrangement, Artificial harmonics, Fingerstyle, Natural harmonics

Click here for a video example.

AutoScroll: Slow | Medium | Fast
                              Star Locket Melody                                


                                                          Cecil Chau (GuitarSVD)
Track 1



     H        E    E    E    E       Q      E    E  E    E    Q     
E||-----------------------------|--<>0----<>0----------------------|
B||------------------------<>1--|--------------<>3--L--<>3--<>1----|
G||-------------------<>2-------|----2-----------------------------|
D||--------------<>2------------|----------------------------------|
A||-----------------------------|----------------------------------|
E||-----------------------------|----------------------------------|


    Q      Q.       E    E    E       Q      E    E  E    E    Q     
---------------------------------|----------------------------------|
--<>0----<>3----------------<>0--|--<>3----<>3--<>1--L--<>1--<>0----|
----1------------------<>1-------|----1-----------------------------|
------------------<>2------------|-------------------2--------------|
---------------------------------|----------------------------------|
---------------------------------|----------------------------------|


    Q      Q.       E    E    E       Q      E    E  E    E    Q     
---------------------------------|--<>0----<>0----------------------|
---------<>1----------------<>1--|--------------<>3--L--<>3--<>1----|
--<>2------------------<>2-------|----2-----------------------------|
------------------<>2------------|----------------------------------|
----0----------------------------|----------------------------------|
---------------------------------|----------------------------------|


    Q      Q.       E    E    E       Q      E    E    E    E  E    E   
---------------------------------|---------<>0-------------------------|
--<>0----<>3----------------<>0--|--<>3---------<>3--<>1--<>0--L--<>1--|
----1------------------<>1-------|----1--------------------------------|
------------------<>2------------|---------------------2---------------|
---------------------------------|-------------------------------------|
---------------------------------|-------------------------------------|


  H        E  E  E  E       E  E  E  E  E  E  Q       E  E  E  E  E  E  E  E   
-----------------------||---0-----0----------------|--------------------------|
--L-----------------1--||---1-----1--3--L--3--1----|--0-----3--------------0--|
-----------------2-----||*-----4-----4--------4----|--1--0--1--0--1-----1-----|
--------------2--------||*-------------------------|-----------------2--------|
--0--------------------||---0-----------0----------|--------------------------|
-----------------------||--------------------------|--0-----------------------|


  E  E  E  E  E  E  Q       Q    Q.     E  E  E     E  E  E  E  E  E  Q     
-------------------------|-----------------------|--0-----0-----------0----|
--3-----3--1--L--1--0----|-------1------------1--|--1--0--1--3--L--3-------|
--1--0--1--0--1----------|--2--------------2-----|-----2-----4-------------|
-------------------------|--------------2--------|-------------------------|
-------------------------|--0--------------------|--0-----------0----------|
--0----------------------|-----------------------|-------------------------|


  E  E  Q.     E  E  E     E  E  E  E  E  E  E  E     H.           Q     
--3-----1------1--0-----|--0-----------------------|--------------------|
--------3------3--1--3--|--------3-----1--0--L-----|--------------------|
-----2---------------2--|-----------1--L--------2--|--L------------2----|
--0---------------------|--------2--------2--L-----|--------------------|
------------------------|-----2--------------------|--0-----------------|
------------------------|--0-----------------------|--------------------|


  E  E  E  E  Q    E  E     E  E  E  E  E  E  E  E     E  E  E  E  E  E  E  E   
--1--------0--1----3--5--|--L--------5-----------0--|--L--------------------0--|
--------3----------------|--------6--L--8--6--L-----|-----------3--1--3--L-----|
-----2-------------------|-----7--------7-----------|--------2--L--2-----------|
--0----------------------|--0--------------0--L-----|-----2--------------------|
-------------------------|--------------------------|--0-----------------------|
-------------------------|--------------------------|--------------------------|


  E  E  E  E  E  E  Q       E  E  E  E  Q    E  E   
--L----------------------|--1--------0--1----3--5--|
-----------0--1--0-------|--------3----------------|
--------2-----------2----|-----2-------------------|
-----2--------------2----|--0----------------------|
--0----------------------|-------------------------|
-------------------------|-------------------------|


              |----3----|                               
  E  E  E  E  Q    Q    Q       H        E  E  E  E     
--L--------5--5----3----1----|--0---------------------||
--------6--L--6----5----3----|--0-----------------1---||
-----7-----------------------|--1--------------2-----*||
--0--------------------------|--------------2--------*||
-----------------------------|------------------------||
-----------------------------|--0---------------------||


                                                ^                        
  E  E  E  E  E  E  E  E     Q    Q    E  E  E  E     W                  
-----------------1--0-----|--0----1----2--4--L--7--|--L----------------||
-----------1-----------3--|--0------------------0--|--L----------------||
--L-----2-----2-----------|-------1----2--4--L--5--|--L----------------||
-----2--------------------|------------------------|-------------------||
--0-----------------------|---------------------0--|--L----------------||
--------------------------|--0---------------------|-------------------||




Duration Legend
---------------
W - whole
H - half
Q - quarter
E - 8th
S - 16th
T - 32nd
X - 64th
. - note dotted
|-n-|  - n-tuplets


Tablature Legend
----------------
L - tied note
x - dead note
g - grace note
(n) - ghost note
> - accentuded note
NH - natural harmonic
AH - artificial harmonic
TH - tapped harmonic
SH - semi harmonic
PH - pitch harmonic
h - hammer on
p - pull off
b - bend
br - bendRelease
pb - preBend
pbr - preBendRelease
brb - bendReleaseBend
\n/ - tremolo bar dip
\n - tremolo bar dive
-/n - tremolo bar Release up
/n\ - tremolo bar inverted dip
/n - tremolo bar return
-\n - tremolo bar Release down
S - shift slide
s - legato slide
/ -  slide into from below or out of upwards
\ -  slide into from above or out of downwards
~ - vibrato
W - wide vibrato
tr - trill
TP - tremolo picking
T - tapping
S - slap
P - pop
< - fade in
^ - brush up
v - brush down
Login or Register to remove this ad.

1 comment on Star Locket Melody

the harmonics are so pretty,

5

the harmonics are so pretty, and fun to play too.